Song name
# A B C D E F G H I J K L M N O P Q R S T U V W X Y Z

Hypocrisy - Osculum Obscenum tab

                          HYPOCRISY - OSCULUM OBSCENUM 
               From the Album - TEN YEARS OF CHAOS AND CONFUSION 
                        Copyright - NUCLEAR BLAST 2001 
                            Version 2.0 - JULY, 2002 


Transcribed by: James Williams (INVERTED) 

For Questions, Comments, Newest Version, or Corrections contact 
INVERTED at Inverted_one@hotmail.com 

Check Out Death8699.com Metaltabs.com or dsrmusic.com for More 
Transcriptions:http://www.Death8699.com http://www.Metaltabs.com 
 

.  - palm mute           /  - slide up to 
\  - slide down to       ~  - vibrato 
h  - hammer on           b  - Bend 
p  - pull off            Suffixes for bend 
t  - tap                 f  - full bend    h - half bend 
ph - pinched harmonic    q  - quarter bend t - tap bend 
*  - see comment         ^  - Hold bend    r release bend 
x  - Stuccatto           ~  - vibrato bend 
,  - slight palm mute    () - ghost note, sustained note 
"  - tremolo note        <> - Trill 

Tuning "B"E"A"D"F#"B" 


Riff 1 
|---------------------------|----------------------------| 
|---------------------------|----------------------------| 
|---------------------------|----------------------------| 
|---------9----8------------|---------9---10-------------| 
|--2------7----6----9-7-5-4-|--2------7----8----8---7----| 
|--0----------------7-5-3-2-|--0----------------6---5----| 
                    . . . . 

Riff 2 
|--------------------------------|------------------------------------| 
|--------------------------------|------------------------------------| 
|--------------------------------|------------------------------------| 
|--------------------------------|------------------8---7-------------| 
|--2---2-2-2-2-2-2-2-2-2-2-4-5-3-|-2---2-2-2-2-2-2--6---5---8---7-----| 
|--0---0-0-0-0-0-0-0-0-0-0-2-3-1-|-0---0-0-0-0-0-0----------6---5-----| 
|      . . . . . . . . . . . .         . . . . . .                    | 
|                                                                     | 
|--------------------------------|------------------------------------| 
|--------------------------------|------------------------------------| 
|--------------------------------|------------------------------------| 
|--------------------------------|------------------4--------3--------| 
|--2---2-2-2-2-2-2-2-2-2-2-4-5-3-|-2---2-2-2-2-2-2--2--5--4--1--4--3--| 
|--0---0-0-0-0-0-0-0-0-0-0-2-3-1-|-0---0-0-0-0-0-0-----3--2-----2--1--| 
       . . . . . . . . . . . .         . . . . . . 

Riff 3-A                                                      GTR I 
|-------------------------------------------------------------------| 
|-------------------------------------------------------------------| 
|-------------------------------------------------------------------| 
|-------------------------------------------------------------------| 
|--222-222--5---5---222-222--3---3---222-222--5---5---3x-3x-3x-3x---| 
|--000-000--3---3---000-000--1---1---000-000--3---3---1x-1x-1x-1x---| 
|  ... ...          ... ...          ... ...                        | 
|                                                                   | 
|-------------------------------------------------------------------| 
|-------------------------------------------------------------------| 
|-------------------------------------------------------------------| 
|-------------------------------------------------------------------| 
|--222-222--5---5---222-222--3---3---222-222--3x--------------------| 
|--000-000--3---3---000-000--1---1---000-000--1x--------------------| 
   ... ...          ... ...          ... ... 
 
                                                             GTR II 
|-------------------------------------------------------------------| 
|-------------------------------------------------------------------| 
|-------------------------------------------------------------------| 
|-------------------------------------------------------------------| 
|--2x-------------------------------------------------3x-3x-3x-3x---| 
|--0x-------------------------------------------------1x-1x-1x-1x---| 
|                                                                   | 
|                                                                   | 
|-------------------------------------------------------------------| 
|-------------------------------------------------------------------| 
|-------------------------------------------------------------------| 
|-------------------------------------------------------------------| 
|--2x-----------------------------------------3x--------------------| 
|--0x-----------------------------------------1x--------------------| 


Riff 3 
|-------------------------------------------------------------------| 
|-------------------------------------------------------------------| 
|-------------------------------------------------------------------| 
|-------------------------------------------------------------------| 
|--222-222--5---5---222-222--3---3---222-222--5---5---3x-3x-3x-3x---| 
|--000-000--3---3---000-000--1---1---000-000--3---3---1x-1x-1x-1x---| 
|  ... ...          ... ...          ... ...                        | 
|                                                                   | 
|-------------------------------------------------------------------| 
|-------------------------------------------------------------------| 
|-------------------------------------------------------------------| 
|-------------------------------------------------------------------| 
|--222-222--5---5---222-222--3---3---222-222--5---5---8--7---5--4---| 
|--000-000--3---3---000-000--1---1---000-000--3---3---6--5---3--2---| 
   ... ...          ... ...          ... ... 

Riff 4                                                              GTR I x3 
|---------------------------------------------------------------------------| 
|---------------------------------------------------------------------------| 
|---------------------------------------------------------------------------| 
|---------------------------------------------------------------------------| 
|--7777777799991010101099991010101010101010--------10101010-----------------| 
|------------------------------------------88887777-------------------------| 
|                                                                           | 
|                                                                        x1 | 
|---------------------------------------------------------------------------| 
|---------------------------------------------------------------------------| 
|---------------------------------------------------------------------------| 
|------------------------------------------101010109999---------------------| 
|--7777777799991010101099991010101010101010------------8888-----------------| 
|---------------------------------------------------------------------------| 


                                                                 GTR II x2 
|---------------------------------------------------------------------------| 
|---------------------------------------------------------------------------| 
|---------------------------------------------------------------------------| 
|---------------------------------------------------------------------------| 
|--7777777799991010101099991010101010101010--------10101010-----------------| 
|------------------------------------------88887777-------------------------| 
|                                                                           | 
|                                                                        x1 | 
|---------------------------------------------------------------------------| 
|---------------------------------------------------------------------------| 
|--999999991111111112121212111111111212121212121212------------12121212-----| 
|--------------------------------------------------101010109999-------------| 
|---------------------------------------------------------------------------| 
|---------------------------------------------------------------------------| 
|                                                                           | 
|                                                                        x1 | 
|---------------------------------------------------------------------------| 
|--------------------------------------------------1313131312121212---------| 
|--999999991111111112121212111111111212121212121212----------------10101010-| 
|---------------------------------------------------------------------------| 
|---------------------------------------------------------------------------| 
|---------------------------------------------------------------------------| 


Riff 5 
|-----------------------|---------------------------| 
|-----------------------|---------------------------| 
|-----------------------|---------------------------| 
|------9999101010107777-|-----999910101010----------| 
|--7777-----------------|-7777------------10101010--| 
|-----------------------|---------------------------| 


Riff 6 
|-----------------------|---------------------------| 
|-----------------------|---------------------------| 
|-----------------------|---------------------------| 
|------5/4\5/4-----4--3-|-----4/5\4/5-----5--4------| 
|------3/2\3/2-----2--1-|-----2/3\2/3-----3--2------| 
|--000---------000------|-000---------000-----------| 
   ...         ...        ...         ... 

Riff 7                                               GTR I  x1
|------------------------------|-------------------------------| 
|------------------------------|-------------------------------| 
|------------------------------|---------------------------ph--| 
|--------------5-4-5-----------|--------------5-4-5--------5~--| 
|--------------3-2-3--5--4--3--|--------------3-2-3--5--4------| 
|--0-0-0-0-0-0--------3--2--1--|--0-0-0-0-0-0--------3--2------| 
|  . . . . . .                    . . . . . .                  |
|                                                           x1 |
|------------------------------|-------------------------------| 
|------------------------------|-------------------------------| 
|------------------------------|---------------------------ph--| 
|--------------5-4-5-----------|--------------5-4-5--------5~--| 
|--------------3-2-3--5--4--3--|--2-2-2-2-2-2-3-2-3--5--4------| 
|--0-0-0-0-0-0--------3--2--1--|--0-0-0-0-0-0--------3--2------| 
|  . . . . . .                    . . . . . .                  |
|                                                           x1 |
|------------------------------|-------------------------------| 
|------------------------------|-------------------------------| 
|------------------------------|---------------------------ph--| 
|--------------5-4-5-----------|--------------5-4-5--------5~--| 
|--------------3-2-3--5--4--3--|--------------3-2-3--5--4------| 
|--0-0-0-0-0-0--------3--2--1--|--0-0-0-0-0-0--------3--2------| 
|  . . . . . .                    . . . . . .                  |
|                                                           x1 |
|------------------------------|-------------------------------| 
|------------------------------|-------------------------------| 
|------------------------------|-------------------------------| 
|--------------5-4-5-----------|--------------5-4-5--------5---| 
|--------------3-2-3--5--4--3--|--------------3-2-3--5--4--3---| 
|--0-0-0-0-0-0--------3--2--1--|--0-0-0-0-0-0--------3--2------| 
   . . . . . .                    . . . . . .

                                                     GTR II x1
|------------------------------|-------------------------------| 
|------------------------------|-------------------------------| 
|------------------------------|-------------------------------| 
|------------------------------|-------------------------------| 
|--2x--------------------------|--2x---------------------------| 
|--0x--------------------------|--0x---------------------------| 
|                                                              |
|                                                           x1 |
|------------------------------|-------------------------------| 
|------------------------------|-------------------------------| 
|------------------------------|-------------------------------| 
|------------------------------|--------------5-4-5--------5---| 
|--2---------------------------|--2-2-2-2-2-2-3-2-3--5--4--3---| 
|--0---------------------------|--0-0-0-0-0-0--------3--2------| 
|                                 . . . . . .                  |
|                                                           x2 |
|------------------------------|-------------------------------| 
|------------------------------|-------------------------------| 
|------------------------------|-------------------------------| 
|--------------5-4-5-----------|--------------5-4-5--------5---| 
|--------------3-2-3--5--4--3--|--------------3-2-3--5--4--3---| 
|--0-0-0-0-0-0--------3--2--1--|--0-0-0-0-0-0--------3--2------| 
   . . . . . .                    . . . . . .

Solo Riff                                                                x3 
|---------------------------------------------------------------------------| 
|---------------------------------------------------------------------------| 
|---------------------------------------------------------------------------| 
|---------------------------------------------------------------------------| 
|--7777777799991010101099991010101010101010--------10101010-----------------| 
|------------------------------------------88887777-------------------------| 
|                                                                           | 
|                                                                        x1 | 
|---------------------------------------------------------------------------| 
|---------------------------------------------------------------------------| 
|---------------------------------------------------------------------------| 
|------------------------------------------101010109999---------------------| 
|--7777777799991010101099991010101010101010------------8888-----------------| 
|---------------------------------------------------------------------------|

Riff 5-A
|-----------------------|---------------------------| 
|-----------------------|---------------------------| 
|-----------------------|---------------------------| 
|------9999101010107777-|-----999910101010----------| 
|--7777-----------------|-7777------------10101010--| 
|-----------------------|---------------------------| 


Riff 5-B (End riff)
|-----------------------|---------------------------| 
|-----------------------|---------------------------| 
|-----------------------|---------------------------| 
|-----------------------|---------------------------| 
|------222233330000-----|-----22223333--------------| 
|--0000-----------------|-0000--------3333----------| 

End on an E5 Chord!

Lyrics Translated By: INVERTED

Osculum Obscenum agghhh!
 
Slowly, I'll take you to the ground, to Hell
I will, I will open up the fire, with hate...

Give up the pain
Questioning my life
Can't you see, religious people?
Just go!

You went too far
Can't you get enough?
All because it's over
Let me die!

Osculum Obscenum 
Pian...
Kill me!

Turn you into a puppet
Do what they want
Cursed is your spirit
It's dead

You went too far
I see your death
All because if somthing
made in his imagination!

Forgive?
You're blind
Hell
Some don't know!

Some still say "I told you so"
and push their bullshit lies
Thank them for their faceless God
When is this going to end?

Osculum Obscenum... 

Osculum Obscenum... 

Check out my other tabs by: Deicide, Obituary, Hypocrisy,
Grave, Catastrophic, Six Feet Under, Incantation and Death
Tap to rate this tab
 
# A B C D E F G H I J K L M N O P Q R S T U V W X Y Z