Guitaretab - guitar tabs
Song name
# A B C D E F G H I J K L M N O P Q R S T U V W X Y Z

Hypocrisy - Roswell 4 tab

                            HYPOCRISY - ROSWELL 47
                            From the Album ABDUCTED
             	          Copyright 1996 Nuclear Blast
                           Version 1.0 - August 2001

Transcribed by: Mikko Leimu

For Questions, Comments, Newest Version, or Corrections contact
Mikko: mleimu@hotmail.com

Check Out Death Warp, With More Transcriptions On It:
 http://tiger.towson.edu/~dalvis1

..  - palm mute         
 /  - slide up to
 \  - slide down to     
 ~  - vibrato
 "  - tremolo picking
 *  - see comment
 () - ghost note, sustained note

Tune Gtr to B (every string 2.5 steps down)

Hypocrisy - Roswell 47

Riff 1A
|------------------------------------------------------------|
|------------------------------------------------------------|
|--------------------9-------------------------9-------------|GTR 1
|-----------------9----10-----------7-------------9-10-------|
|-5-5-3--2---/7------------10---10---------7------------10---|
|-3-3-1--0-----------------------------0---------------------|
| . .				      			     |
|                                                            |
|------------------------------------------------------------|
|------------------------------------------------------------|
|------------------------------------------------------------|GTR 2
|------------------------------------------------------------|
|-5-5-3--2-----------------------------------------------(2)-|
|-3-3-1--0-----------------------------------------------(0)-|
  . . 

Riff 1B
|------------------------------------------------------------|
|------------------------------------------------------------|
|--------------------9-------------------------9-------------|GTR 1
|-----------------9----10-----------7-------------9-10-------|
|-5-5-3--2---/7------------10---10---------7------------10---|
|-3-3-1--0-----------------------------0---------------------|
| . .				      			     |
|                                                            |
|------------------------------------------------------------|
|------------------------------------------------------------|
|------------------------------------------------------------|GTR 2
|------------------------------------------------------------|
|-5-5-3--2-----------------------(2)-2-2-----------------(2)-|
|-3-3-1--0-----------------------(0)-0-0-----------------(0)-|
  . .

Repeat Riff 1B  2 times

Riff 1C
|-------------------------------------------------------------------|
|-------------------------------------------------------------------|
|---------------------------9-------------------------9-------------|GTR 1
|------------------------9----10-----------7-------------9-10-------|
|-5-5-3--5-5-3--2---/7------------10---10---------7------------10---|
|-3-3-1--3-3-1--0-----------------------------0---------------------|
| . .	 . .						            |
|                                                                   |
|-------------------------------------------------------------------|
|-------------------------------------------------------------------|
|---------------------------4-------------------------4-------------|GTR 2
|------------------------4-----5-------------------------4--5-------|
|-5-5-3--5-5-3--2----2-------------5----5--7--2---2-------------5---|
|-3-3-1--3-3-1--0-----------------------------0---------------------|
  . .    . .

|-------------------------------------------------------------------|
|-------------------------------------------------------------------|
|--------------------9-------------------------9--------------------|GTR 1
|-----------------9----10-----------7-------------9-10--------------|
|-5-5-3--2---/7------------10---10---------7------------10---5-5-3--|
|-3-3-1--0-----------------------------0---------------------3-3-1--|
| . .				             		     . .    |
|                                                                   |
|-------------------------------------------------------------------|
|-------------------------------------------------------------------|
|--------------------4-------------------------4--------------------|GTR 2
|-----------------4-----5-------------------------4--5--------------|
|-5-5-3--2----2-------------5----5--7--2---2-------------5---5-5-3--|
|-3-3-1--0-----------------------------0---------------------3-3-1--|
  . . 							     . .	

Riff 2
|-----------------------------------------------|
|-----------------------------------------------|
|------------------------4------4-6-7--11-6--7--|GTR 1
|------------------5----------------------------|
|-2------2-4-5-----3-----2------2-4-5--9--4--5--|
|-0------0-2-3----------------------------------|
|                                               |
|-----------------------------------------------|
|-----------------------------------------------|
|-4------4-6-7----/12------------------7--------|GTR 2
|------------------------5------5-7-9-----7--9--|
|-2------2-4-5----/10------------------5--------|
|------------------------3------3-5-7-----5--7--|

Repeat Riff 2  3 times

Riff 3
|-------------------------------|---------------------------------------|
|-------------------------------|---------------------------------------|
|-------------------------------|---------------------------------------|GTR 1
|-7"---9"--10"----------9"------|-7"---9"--10"----------9"--------------|
|-------------------------------|---------------------------------------|
|-------------------------------|---------------------------------------|
|				| 				        |
|-------------------------------|---------------------------------------|
|-------------------------------|---------------------------------------|
|-5"---7"---9"---12"---11"------|-5"---7"---9"---12"---11"------8"------|GTR 2
|-------------------------------|---------------------------------------|
|-------------------------------|---------------------------------------|
|-------------------------------|---------------------------------------|


Riff 1D
|------------------------------------------------------------|
|------------------------------------------------------------|
|-------------9-------------------------9--------------------|GTR 1
|----------9----10-----------7-------------9-10--------------|
|-2---/7------------10---10---------7------------10---5-5-3--|
|-0-----------------------------0---------------------3-3-1--|
| 	      			 		      . .    |
|                                                            |
|------------------------------------------------------------|
|------------------------------------------------------------|
|------------------------------------------------------------|GTR 2
|------------------------------------------------------------|
|-2--------5-----3--------------2-------5-----3-------5-5-3--|
|-0--------3-----1--------------0-------3-----1-------3-3-1--|
 						      . .
Repeat Riff 1D

Riff 2
Riff 3

Riff 1E
|-------------------------------------------------------------------|
|-------------------------------------------------------------------|
|-------------9-------------------------9---------------------------|GTR 1
|----------9----10-----------7-------------9-10---------------------|
|-2---/7------------10---10---------7------------10---5-5-3--5-5-3--|
|-0-----------------------------0---------------------3-3-1--3-3-1--|
| 	      			 		       . .    . .   |
|                                                                   |
|-------------------------------------------------------------------|
|-------------------------------------------------------------------|
|------------------------------------------------x\-----------------|GTR 2
|------------------------------------------------x\-----------------|
|-2-----------------------(2)-2-2----------------x\---5-5-3--5-5-3--|
|-0-----------------------(0)-0-0----------------*----3-3-1--3-3-1--|
						      . .    . .

					 	 *pick slide
Riff 4
|------------------------|------------------------|
|------------------------|------------------------|
|------------------------|------------------------|GTR 1
|-----12---11------11----|-----12---11------11-12-|
|--9-------------9----12-|-10------------12-------|
|------------------------|------------------------|
|	 		 |			  |
|------------------------|------------------------|
|------------------------|------------------------|
|-----14---13------13----|-----14---13------13-14-|GTR 2
|-11------------11----14-|-12------------14-------|
|------------------------|------------------------|
|------------------------|------------------------|


|------------------------|------------------------|
|------------------------|------------------------|
|------------------------|------------------------|GTR 1
|-----12---11------11----|-----12---11------12/14-|
|--9-------------9----12-|-10------------12-------|
|------------------------|------------------------|
|		         |			  |
|------------------------|------------------------|
|------------------------|------------------------|
|-----14---13------13----|------14--13------13/15-|GTR 2
|-11------------11----14-|-12------------14-------|
|------------------------|------------------------|
|------------------------|------------------------|

Repeat Riff 4

Riff 3

Riff 1E
|------------------------------------------------------------|
|------------------------------------------------------------|
|-------------9-------------------------9--------------------|GTR 1
|----------9----10-----------7-------------9-10--------------|
|-2---/7------------10---10---------7------------10---5-5-3--|
|-0-----------------------------0---------------------3-3-1--|
| 		 			              . .    |
|                                                            |
|------------------------------------------------------------|
|------------------------------------------------------------|
|-------------4-------------------------4--------------------|GTR 2
|----------4-----5-------------------------4--5--------------|
|-2----2-------------5----5--7--2---2-------------5---5-5-3--|
|-0-----------------------------0---------------------3-3-1--|
						      . .
Repeat till end & fade out


Check Out Death Warp, With More Transcriptions On It:
 http://tiger.towson.edu/~dalvis1
[ Tab from: http://www.guitaretab.com/h/hypocrisy/39319.html ]
Related for Roswell 4 tab
Roswell 4 chords by Hypocrisy