Song name
# A B C D E F G H I J K L M N O P Q R S T U V W X Y Z

Hypocrisy - Reincarnation tab

                              HYPOCRISY - REINCARNATION
                        From the Album - THE FORUTH DIMENSION     
                           Copyright - NUCLEAR BLAST 1994
                              Version 2.0 - June, 2002


Version 2.0 Transcribed by: James Williams (Inverted)
Origional Transcription by: AJMB 
Origional Transcription of Solo 2 by: Succubus

For Questions, Comments, Newest Version, or Corrections contact
Inverted: at Inverted_one@hotmail.com, AJMB at toti@caleida.pt
or Succubus at kyla-master@web.de
 
Check Out Death8699.com Metaltabs.com or dsrmusic.com for More
Transcriptions:http://www.Death8699.com http://www.Metaltabs.com


.  - palm mute           /  - slide up to
\  - slide down to       ~  - vibrato
h  - hammer on           b  - Bend
p  - pull off            Suffixes for bend
t  - tap                 f  - full bend    h - half bend
ph - pinched harmonic    q  - quarter bend t - tap bend
*  - see comment         ^  - Hold bend    r release bend
x  - Stuccatto           ~  - vibrato bend
,  - slight palm mute    () - ghost note, sustained note
"  - tremolo note        <> - Trill
 
Tunning "C"F"A#"D#"G"C" 

Riff 1-A                                                    GTR I&II   
|-------------------------------------------------------------------| 
|-------------------------------------------------------------------| 
|-------------------------------------------------------------------| 
|------------4---5---------------------------4---5---------7--------| 
|--2---------2---3-----------------2---------2---3---------5--------| 
|--0-------------------------------0--------------------------------| 
|                                                                   | 
|-------------------------------------------------------------------| 
|-------------------------------------------------------------------| 
|-------------------------------------------------------------------| 
|------------4---5---------------------------4---5-------------7----| 
|--2---------2---3-----------------2---------2---3---------7---5----| 
|--0-------------------------------0-----------------------5--------| 


Lead 1                                                         GTR I
|-------------------------------------------------------------------| 
|-------------------------------------------------------------------| 
|-------------------------------------------------------------------| 
|---------------------7-------------------9--7--------7--9----9r(9)-| 
|--5\7-------9--10-------9----10--7-------------10------------bh----| 
|-------------------------------------------------------------------| 
|                                                                   | 
|-------------------------------------------------------------------| 
|-------------------------------------------------------------------| 
|-------------------------------------------------------------------| 
|--7--9--9^-----9---7----9---------7--------------------------------| 
|--------bh------------------10--------9---------7------------------| 
|-------------------------------------------10----------------------| 


Riff 1-B                                                      GTR II
|-------------------------------------------------------------------| 
|-------------------------------------------------------------------| 
|-------------------------------------------------------------------| 
|--9---------4---5-----------------9---------4---5---------7--------| 
|--7---------2---3-----------------7---------2---3---------5--------| 
|--0-------------------------------0--------------------------------| 
|                                                                   | 
|-------------------------------------------------------------------| 
|-------------------------------------------------------------------| 
|-------------------------------------------------------------------| 
|--9---------4---5-----------------9---------4---5-------------7-7--| 
|--7---------2---3-----------------7---------2---3---------7-7-5-5--| 
|--0-------------------------------0-----------------------5-5------| 


Riff 1-C                                                    GTR I&II
|-------------------------------------------------------------------| 
|-------------------------------------------------------------------| 
|-------------------------------------------------------------------| 
|------------4-4-5-5-5-5-5-5-5-5-5-----------4-4-5-5-5-5-5-7-7-7-7--| 
|--2-2-2-2-2-2-2-3-3-3-3-3-3-3-3-3-2-2-2-2-2-2-2-3-3-3-3-3-5-5-5-5--| 
|--0-0-0-0-0-----------------------0-0-0-0-0------------------------| 
|  . . . . . . . . . . . . . . . . . . . . . . . . . . . . . . . .  | 
|-------------------------------------------------------------------| 
|-------------------------------------------------------------------| 
|-------------------------------------------------------------------| 
|------------4-4-5-5-5-5-5-5-5-5-5-----------4-4-5-5-5-5-5-----7-7--| 
|--2-2-2-2-2-2-2-3-3-3-3-3-3-3-3-3-2-2-2-2-2-2-2-3-3-3-3-3-7-7-5-5--| 
|--0-0-0-0-0-----------------------0-0-0-0-0---------------5-5------| 
   . . . . . . . . . . . . . . . . . . . . . . . . . . . . . . . .


Lead 3                                                   GTR I
|-------------------------------------------------------------| 
|-------------------------------------------------------------| 
|----------------------------------------------------7--9--7--| 
|--7\9---7---9--10---9--7----------7\9---7---9--10------------| 
|--------------------------10---------------------------------| 
|-------------------------------------------------------------| 


Riff 2                                                  GTR II
|-------------------------------------------------------------| 
|-------------------------------------------------------------| 
|-------------------------------------------------------------| 
|--2---------4---5---------7-------2---------4---5---------7--| 
|--0---------2---3---------5-------0---------2---3---------5--| 
|-------------------------------------------------------------| 


Lead 2                                                                  GTR I
|----------------------------------------------------------------------------| 
|----------------------------------------------------------------------------| 
|----------------------------------------------------------------------------| 
|-----10-9--10-9-10-----10-9--10-9-10-----10-9--10-9-10----10-10-9----7-7-5--| 
|--7-----------------6-------------------------------------------------------| 
|--------------------------------------7-----------------8----------5--------| 
|                                                                            |
|----------------------------------------------------------------------------| 
|----------------------------------------------------------------------------| 
|----------------------------7-----------------------------------------------| 
|-----10-9--10-9-10-----10-9---10-9-10----10-9--10-9-10----10-10-9----7-7-5--| 
|--7-----------------6-------------------------------------------------------| 
|--------------------------------------7-----------------8----------5--------| 


Riff 3-A                                                               GTR II
|----------------------------------------------------------------------------| 
|----------------------------------------------------------------------------| 
|----------------------------------------------------------------------------| 
|----------------------------------------------------------------------------| 
|--777777777777777777666666666666666666--------------------------------------| 
|--------------------------------------7777777777777777778888888888555555555-| 
|                                                                            |
|----------------------------------------------------------------------------| 
|----------------------------------------------------------------------------| 
|----------------------------------------------------------------------------| 
|----------------------------------------------------------------------------| 
|--777777777777777777666666666666666666--------------------------------------| 
|--------------------------------------7777777777777777778888888888855555555-| 


Riff 3-B                                                              GTR III 
|----------------------------------------------------------------------------| 
|----------------------------------------------------------------------------| 
|----------------------------------------------------------------------------| 
|--9-----------------8-------------------------------------------------------| 
|--7-----------------6-----------------9-------------9--10-----10---7--------| 
|--0-----------------------------------7-------------7---8------8---5--------| 
|                                                                            |
|----------------------------------------------------------------------------| 
|----------------------------------------------------------------------------| 
|----------------------------------------------------------------------------| 
|--9-----------------8-------------------------------------------------------| 
|--7-----------------6-----------------9--------------9-10-----10---7--------| 
|--0-----------------------------------7--------------7--8------8---5--------| 


Riff 4                                                            GTR I
|----------------------------------------------------------------------| 
|----------------------------------------------------------------------| 
|------9-------9-------8-------4-------9-------9-------8--------11-12--| 
|----9---9---9---9---8---8---4---4---9---9---9---9---8---8---11--------| 
|--7-------7-------6-------2-------7-------7-------6-------9-----------| 
|----------------------------------------------------------------------| 
   . . . . . . . . . . . . . . . . . . . . . . . . . . . . .  .  .  .

                                                                 GTR II
|----------------------------------------------------------------------| 
|----------------------------------------------------------------------| 
|----------------------------------------------------------------------| 
|--9---------------8-------4-------9---------------8------11----11\12--| 
|--7---------------6-------2-------7---------------6-------9-----9\10--| 
|--0-------------------------------0-----------------------------------| 


Solo Riff 1
|-------------------------------------------------------------------| 
|-------------------------------------------------------------------| 
|-------------------------------------------------------------------| 
|--9---------4---5---------7-------9---------4---5---------7--------| 
|--7---------2---3---------5-------7---------2---3---------5--------| 
|--0-------------------------------0--------------------------------| 
                                          

Solo 1 
|------------------------------------------------------------------- 
|---------------------------------------------------------------15--
|----------------------------------------------------12---14^--(14)-
|--2---2\4-4\5-5\7-7/5-5/4-4\5--9-----12---14---16--------bf--------
|-------------------------------------------------------------------
|-------------------------------------------------------------------


--------------------------------------------------------------------
--------------------------------------------------------------------
---12-h14-14^---14---14---14---14---14---14---14r(14)--12h14p12-----
----------bf----------------------------------------------------14~-
--------------------------------------------------------------------
--------------------------------------------------------------------


--------------------------------------------------------------------
--15^----17r(17)--15--13h15p13--------------------------------------
--bf-----bf----------------------16--14h16p14---12------------------
-----------------------------------------------------14-------------
--------------------------------------------------------------------
--------------------------------------------------------------------

                  Natural harmonic with whammy bar flutter * 
--------------------------------------------------------------------| 
--------------------------------------------------------------------| 
-----------------------------------------------------------nh-------| 
-----------------------------------------------------------2\/\/\/\-| 
--------------------------------------------------------------------| 
--------------------------------------------------------------------| 


Solo Riff 2
|-------------------------------------------------------------------| 
|-------------------------------------------------------------------| 
|-------------------------------------------------------------------| 
|-------------------------------------------------------------------| 
|------------2222333333333333333333----------2222333333333355555555-| 
|--0000000000----------------------0000000000-----------------------| 
|                                                                   |
|-------------------------------------------------------------------| 
|-------------------------------------------------------------------| 
|-------------------------------------------------------------------| 
|-------------------------------------------------------------------| 
|------------2222333333333333333333----------22223333333333----5555-| 
|--0000000000----------------------0000000000--------------5555-----| 


Solo 2 
|--15^---15r(15)-------------------------------------------15-------
|--15^---15r(15)----------------------------------------------------
|--bf----bf-------12-14^---12h14p12---------------------------------
|--------------------bf-------------14~------------12--14------14^--
|-----------------------------------------12--14---------------bf---
|-------------------------------------------------------------------


------------------------------15p14p12-t17p15p14p12-t17p15p14p12-t17
--------------------------------------------------------------------
--15-----15---------------------------------------------------------
-(14)---(14)r(14)---14--12~-----------------------------------------
--------------------------------------------------------------------
--------------------------------------------------------------------

p15p14p12--17^---17---15----17---14----15---------------------------
-----------Bf-------------------------------17----15---17--15h17p15-
--------------------------------------------------------------------
--------------------------------------------------------------------
--------------------------------------------------------------------
--------------------------------------------------------------------

-------------------------------------------------------------------- 
-------------------------------------------------------------------- 
-17---16---14------------------------------------------------------- 
----------------16~-----14~--14/12-12/10-10/9-9\10-10\12-12\14--14~- 
-------------------------------------------------------------------- 
-------------------------------------------------------------------- 

--12"-14"-15"-14"--12"---| 
-------------------------| 
-------------------------| 
-------------------------| 
-------------------------| 
-------------------------|


Lyrics Translated by: Inverted

You feel no warning
From behind
The truth is burried
I've already died

Through your sorrows
Of your life
You ain't getting ahead 
From this time

I feel the evil
That flows in me
The voices calling me out

Silence!
The only sound is the knife through the air
Hell!
Is where I'll be when I'm through with you

I get more bodies
To get ahead
Your heart rips
When I'm closing in
Cut wide open
To spead the wounds...
You feel the power of the sacrifice!

I feel the evil
That flows in me
The voices calling me out

Silence!
The only sound is the knife through the air
Hell!
Is where I'll be when I'm through with you

Silence!
The only sound is the knife through the air
Hell!
Is where I'll be when I'm through with you


Check out my other tabs by: Deicide, Obituary, Hypocrisy,
Grave, Catastrophic, Six Feet Under, Incantation and Death
Tap to rate this tab
# A B C D E F G H I J K L M N O P Q R S T U V W X Y Z