Song name
# A B C D E F G H I J K L M N O P Q R S T U V W X Y Z

Hypocrisy - Disconnected Magnetic Corridors tab

Help us improve GuitareTab! Take a short survey!
                                   HYPOCRISY-
                        DISCONNECTED MAGNETIC CORRIDORS
                          From the Album - HYPOCRISY
                         Copyright: NUCLEAR BLAST 1999
                           Version 1.0 - Jan 1, 2001


Transcribed by: James Williams (Inverted)

For Questions, Comments, Newest Version, or Corrections contact
Inverted: at Inverted_one@hotmail.com

Check Out Death8699.com Metaltabs.com or dsrmusic.com for More
Transcriptions:http://www.Death8699.com http://www.Metaltabs.com


 .  - palm mute           /  - slide up to
 \  - slide down to       ~  - vibrato
 h  - hammer on           b  - Bend
 p  - pull off            Suffixes for bend
 t  - tap                 f  - full bend    h - half bend
 ph - pinched harmonic    q  - quarter bend t - tap bend
 *  - see comment         ^  - Hold bend    r release bend
 x  - Stuccatto           ~  - vibrato bend
 ,  - slight palm mute    () - ghost note, sustained note
 "  - tremolo note        <> - Trill

Tuning: "B"E"A"D"

DISCONNECTED MAGNETIC CORRIDORS...

Riff 1-A
|---------------------------------------------------
|---------------------------------------------------
|---------------------------------------------------
|---------------------------------------------------
|--9-7--7h9-9--9h10-10--10--10p9p7--9-7-7-9---9-9-9-
|---------------------------------------------------

 -----------------------------------------|
 -----------------------------------------|
 -----------------------------------------|Gtr I
 -----------------------------------------|
 --9-7-7-9--9-7-7-9--10---10-10-9--7-7-9--|
 -----------------------------------------|

Riff 1-A
|---------------------------------------------------
|---------------------------------------------------
|---------------------------------------------------
|---------------------------------------------------
|--9-7--7h9-9--9h10-10--10--10p9p7--9-7-7-9---9-9-9-
|---------------------------------------------------

 -------------------------------------------|
 -------------------------------------------|
 -------------------------------------------|Gtr II
 --------------------10---12-12-11--9-9-11--|
 --9-7-7-9--9-7-7-9--10---10-10--9--7-7--9--|
 -------------------------------------------|

Riff 1-A
|---------------------------------------------------
|---------------------------------------------------
|---------------------------------------------------
|--11--------------------------------9--------------
|---9--------------------------------7--------------
|---------------------------------------------------

 --------------------------------------------|
 --------------------------------------------|
 --------------------------------------------|Gtr III
 --11-----------------10---12-12-11--9-9-11--|
 ---9-----------------10---10-10--9--7-7--9--|
 --------------------------------------------|


Riff 1-B
|------------------------------------------------
|------------------------------------------------
|------------------------------------------------
|------------------------------------------------
|--9-7-7-9--9-10-10--10--10p9p7--9-7-7-9---9-9-9-
|------------------------------------------------

 -----------------------------------------|
 -----------------------------------------|
 -----------------------------------------|Grr I
 -----------------------------------------|
 --9-7-7-9--9-7-7-9--10---10-10-9--7-7-9--|
 -----------------------------------------|

Riff 1-B
|------------------------------------------------
|------------------------------------------------
|------------------------------------------------
|------------------------------------------------
|--9-7-7-9--9-10-10--10--10p9p7--9-7-7-9---9-9-9-
|------------------------------------------------

 -------------------------------------------|
 -------------------------------------------|
 -------------------------------------------|Gtr II
 -------------------------12-12-11--9-9-11--|
 --9-7-7-9--9-7-7-9--10---10-10--9--7-7--9--|
 -------------------------------------------|

Riff 1-B
|------------------------------------------------
|------------------------------------------------
|------------------------------------------------
|--11-----------------------------9--------------
|---9-----------------------------7--------------
|------------------------------------------------

 ------------------------------------------|
 ------------------------------------------|
 ------------------------------------------|Gtr III
 --11---------------12---12-12-11--9-9-11--|
 ---9---------------10---10-10--9--7-7--9--|
 ------------------------------------------|

Riff 2
|---------------------------||-------------------------------------------
|---------------------------||-------------------------------------------
|---------------------------||-------------------------------------------
|--6------8------9-----11---||-------------------------------------------
|--4------6------7------9---||4\6--6-6-6--6-6-6\12--12-12-12--12-12-12/6-
|---------------------------||-------------------------------------------

 ----------------------------|
 ----------------------------|
 ----------------------------|
 ----------------------------|
 -6-6-6--6-6-6\12--12-12-12--|
 ----------------------------|

Riff 3
|--------------------------------------------------|
|--------------------------------------------------|
|--------------------------------------------------|
|--11---14--12--11---14--11--12---14--12--11----9--|
|---9---12--10---9---12---9--10---12--10---9----7--|
|--------------------------------------------------|

Riff 4
|-------------------------------------------------|
|-------------------------------------------------|
|-------------------------------------------------|
|--3\5---8-------------8-------8-7-5--------7\10--|
|------------5--7---5------7---------8------------|
|-------------------------------------------------|

 The song structure is basic so just play along and figure
it out for your self.

 Check out my other tabs bt Hypocrisy, Grave, Obituary
and Six Feet Under.
Related for Disconnected Magnetic Corridors tab