Song name
# A B C D E F G H I J K L M N O P Q R S T U V W X Y Z

Hypocrisy - Infant Sacrifices tab

Help us improve GuitareTab! Take a short survey!
                         HYPOCRISY - INFANT SACRIFICES
                        From the Album: OSCULUM OBSCENUM
                         Copyright: NUCLEAR BLAST 1993


                          Version 1.0 September 2001



Transcribed by: James Williams (INVERTED)
E-mail: smann@ainet.com



NOTATION USED:


" - Tromolo note (One "= four notes one '= two notes)

. - Palm mute

p - Pull off

h - Hammer on

x - Mute all strings (staccato)

* - Let note ring


 Here's another extremely Brutal masterpeice by Hypocrisy.
(Infant Sacrifices) I hope you like it!


 Note: Peter uses alot of effects and shit, so do some
       experimenting. I'd recommend a harmonizer for most
       of the leads.


TUNING "C"F"A#"D#"G"C" ( 2 whole steps down!)


Riff 1 - A
|------------------------------------|
|------------------------------------|
|------------------------------------|Gtr I
|------------------------------------|
|------------------------------------|
|--00000000000000000000000000000000--|



Riff 1 - B
|------------------------------------|
|------------------------------------|
|------------------------------------|Gtr II
|--2x---------------2-5-4-5-2-5-4-5--|
|--2x---------------2-5-4-5-2-5-4-5--|
|--0x---------------0-3-2-3-0-3-2-3--|
pm                  . . . . . . . .


Riff 1         
|------------------------------------|
|------------------------------------|
|------------------------------------|
|-------------------2-5-4-5-2-5-4-5--|
|-------------------2-5-4-5-2-5-4-5--|
|--0000000000000000-0-3-2-3-0-3-2-3--|
pm . . . .  . . . .


Riff 2 - A x 3                Riff 2 - B x 1
|---------------------------||---------------------------|
|---------------------------||---------------------------|
|---------------------------||---------------------------|
|--2-----5-----4-----2-5-4--||--2-----5------------------|
|--2-----5-----4-----2-5-4--||--2-----5-----------0h3p2--|
|--0-000-3-000-2-000-0-3-2--||--0-000-3-000-0h3p2--------|
pm   ...   ...   ... . . .        ...   ...


Riff 3
|-----------------------------------------------------|
|-----------------------------------------------------|
|-----------------------------------------------------|
|-----------------------------------------------------|
|-------7-------------------------7---------8--10--8--|
|--0---------8----7--8--7----0---------8--------------|



Riff 4                                        End
|--------------------------------------------||-----||
|--------------------------------------------||-----||
|-----------------7---------------7----------||-----||
|-------7----8---------10----8---------8--7--||-----||
|--5-----------------------------------------||--5--||
|--------------------------------------------||-----||
   *                                                


Riff 5 - A
|--------------------------------------------|
|--------------------------------------------|
|--------------------------------------------|
|--------------------------------------------|
|-------5""-------3""-------1""--------------|
|--0""-------0""-------0""-------5"--4"--2"--|



Riff 5 - B
|-------------------------------------------------|
|-------------------------------------------------|
|-------------------------------------------------|
|-------------------------------------------------|
|-------5""-------3""-------1""----------0h5p4p2--|
|--0""-------0""-------0""-------0h5p4p2----------|



Riff 6
|-------------------------------------------------------------------|
|-------------------------------------------------------------------|
|-------------------------------------------------------------------|
|--3-----3-----3-2-3-----3-----3-2-3-----3-----3-2-3-----3-2-5-4-5--|
|--3-----3-----3-2-3-----3-----3-2-3-----3-----3-2-3-----3-2-5-4-5--|
|--1-000-1-000-1-0-1-000-1-000-1-0-1-000-1-000-1-0-1-000-1-0-3-2-3--|
pm   ...   ... . .   ...   ... . .   ...   ... . .   ...   . . . .


Riff 7
|---------------------------------------------------|
|---------------------------------------------------|
|---------------------------------------------------|
|---------------------------------------------------|
|---------------------------------------------------|
|--0""--7""--0""--5'6'5"--0""--3'4'3"--0""--3'2'5"--|



SONG STRUCTURE:

Riff (1-A) x 4 Gtr I
Riff (1-B) x 4 Gtr II
Riff ( 1 ) x 8
Riff (2-A) x 3
Riff (2-B) x 1
Riff (2-A) x 3
Riff (2-B) x 1
Riff ( 1 ) x 8
Riff ( 3 ) x 3
Riff ( 4 ) x 3
Riff (5-A) x 1
Riff (5-B) x 1
Riff (5-A) x 1
Riff (5-B) x 1
Riff ( 6 ) x 4
Riff ( 1 ) x 8
Riff ( 3 ) x 2
Riff ( 4 ) x 2
Riff ( 7 ) x 3 Fade out
End!


 Alright, there's another one for you. I hope you enjoy it.
Check out my other tabs by Hypocrisy " Take The Throne, Black
Forest, When The Candle Fades, Exclamation Of A Necrofag and 
Attachment To The Ancestor." By Obituary "Dying, Body Bag,
Rewind, Corrosive and Pressure Point. Tell me what you think.

 I'll be back soon with many more tabs. So keep your eyes open.
Related for Infant Sacrifices tab