Guitaretab - guitar tabs
Song name
# A B C D E F G H I J K L M N O P Q R S T U V W X Y Z

Hypocrisy - Necronomicon tab

                       HYPOCRISY - NECRONOMICON
                   From the Album: OSCULUM OBSCENUN
                     Copyright: NUCLEAR BLAST 1993

                      Version 1.0 september 2001



Transcribed by: James Williams (INVERTED)
E-mail: smann@ainet.com


NOTATION USED:


 . - Palm mute            x - Mute all string (Stuccato)                         


 h - Hammer on           Ph - Pinched harmonic

                                       
 p - Pull off             " - Tromolo note ( One "= 4 notes!)


 ~ - Vibrato              ' - Tromolo note ( One '= 2 Notes!)


 Here's another one from the great Osculum Obscenum. This 
is one of the best song on the album. I hope you like it.


Tuning:"C"F"A#"D#"G"C" (2 whole steps down!)


 Riff 1
|---------------------------------------------------------------|
|---------------------------------------------------------------|
|---------------------------------------------------------------|
|---------------------------------------------------------------|
|-------7"----------------------------7"-------------------5""--|
|--0"--------8""--7"---3"---5""--0"--------8""---7"---3"--------|


 Riff 2 - A
|---------------------------------|
|---------------------------------|
|---------------------------------|
|--------------------------2---4--|
|--------------------------2---4--|
|--0"--2'--1'--0"--4'--2'--0---2--|


 Riff 2 - B
|---------------------------------|
|---------------------------------|
|---------------------------------|
|--2---4---3---2---6---4---2---4--|
|--2---4---3---2---6---4---2---4--|
|--0---2---1---0---4---2---0---2--|
pm .   .   .   .   .   .


 Riff 3 - A
|----------------------------------------------------------|
|----------------------------------------------------------|
|----------------------------------------------------------|
|----------------------------------------------------------|
|------7"---8"-------5"---4"-------7"---8"-------3"---2"---|
|--0"------------0"------------0"------------0"------------|


 Riff 3 - B
|----------------------------------------------------------|
|----------------------------------------------------------|
|----------------------------------------------------------|
|--2x------------2x------------2x------------2x------------|
|--2x------------2x------------2x------------2x------------|
|--0x------------0x------------0x------------0x------------|


 Riff 3 - C
|----------------------------------------------------------|
|----------------------------------------------------------|
|----------------------------------------------------------|
|----------------------------------------------------------|
|------9"--10"-------7"---6"-------9"--10"-------5"---4"---|
|--0"------------0"------------0"------------0"------------|



 Riff 4 - A (Chorus)
|-----------------------------------------------------------|
|-----------------------------------------------------------|
|-----------------------------------------------------------|
|-------9---10--------7----6--------9---10--------5----4----|
|-------7----8--------5----4--------7----8--------3----2----|
|-0--0----------0--0----------0--0----------0--0------------|
pm.  .          .  .          .  .          .  .


Note: (Riff 4 - B is the last riff of the song and is played 
       after the Chorus.)


 Riff 4 - B (End Riff)                                 Gtr I
|-----------------------------------------------------------|
|-----------------------------------------------------------|
|-----------------------------------------------------------|
|------ph---ph-------ph---ph-------ph---ph-------ph---ph----|
|-------7~---8~-------5~---4~-------7~---8~-------3~---2~---|
|-0--0----------0--0----------0--0----------0--0------------|
pm.  .          .  .          .  .          .  .

                                                      Gtr II
|-----------------------------------------------------------|
|-----------------------------------------------------------|
|-----------------------------------------------------------|
|------ph---ph-------ph---ph-------ph---ph-------ph---ph----|
|-------9~--10~-------7~---6~-------9~--10~-------5~---4~---|
|-0--0----------0--0----------0--0----------0--0------------|
pm.  .          .  .          .  .          .  .


 Riff 5 - A
|-------------------------------------------|
|-------------------------------------------|
|-------------------------------------------|
|-------------------------------------------|
|--2-----------------------------2-h-5-p-4--|
|--0--0-0-0--0--0--0--2-h-5-p-4-------------|
pm    . . .  .  .  .


 Riff 5 - B
|-------------------------------------------|
|-------------------------------------------|
|-------------------------------------------|
|--------------------------------2-h-5-p-4--|
|--2------------------2-h-5-p-4-------------|
|--0--0-0-0--0--0--0------------------------|
pm    . . .  .  .  .


 Riff 6 
|----------------------------------------|
|----------------------------------------|
|----------------------------------------|
|--2----4----5----4----7----4----5----4--|
|--2----4----5----4----7----4----5----4--|
|--0----2----3----2----5----2----3----2--|



 Riff 7
|------------------------------------------|
|------------------------------------------|
|------------------------------------------|
|------------------------------------------|
|----------------------3""-----------------|
|--2""--4""--5""--4""-------4""--5""--4""--|


 Fill 1          Riff 8
||-----------|| |-----------------------------------------------------|
||-----------|| |-----------------------------------------------------|
||-----------|| |-----------------------------------------------------|
||--2--5--4--|| |--2----5----4----2--5--4-----2----5----4----2--5--4--|
||--2--5--4--|| |--2----5----4----2--5--4-----2----5----4----2--5--2--|
||--0--3--2--|| |--0----4----2----0--3--2-----0----4----2----0--3--2--|
pm  .  .  .                       .  .  .                    .  .


SONG STRUCTURE:


Riff ( 1 ) x 4
Riff (2-A) x 16
Riff (3-A) x 4 Gtr I
Riff (3-B) x 1 (3-C) x 3 Gtr II
Riff (4-A) x 4
Riff (5-A) x 8 Gtr I 
Riff (5-A) x 4 (5-B) x 4 Gtr II
Riff (2-A) x 8
Riff (2-B) x 8
Riff ( 6 ) x 4
Riff ( 7 ) x 4
Fill ( 1 ) x 1
Riff ( 8 ) x 8
Riff (3-A) x 3 Gtr I 
Riff (3-B) x 1 (3-C) x 2 Gtr II
Riff (4-A) x 4
Riff (4-B) x 2


 Ok, there you go, thats the whole song. I hope you like it!
Check out my other tabs by Hypocrisy " Paradox, Attachment
to the Ancestor, Exclamation of a Necrofag, Infant Sacrifices,
Black Forest, When the Candle Fades and Take the Throne."And by
Obituary "Dying, Body Bag, Corossive, Rewind and Pressure Point."
Check them out and tell me what you think.
[ Tab from: http://www.guitaretab.com/h/hypocrisy/39340.html ]
Related for Necronomicon tab
Necronomicon chords by Hypocrisy