Guitaretab - guitar tabs
Song name
# A B C D E F G H I J K L M N O P Q R S T U V W X Y Z

I-94 - Go Back In Time tab

-------------------------------------------------------------------------------
			    Go Back In Time - I-94
-------------------------------------------------------------------------------
Tabbed by: Skim5

This is a great song, and its not too hard either. I think i got the rhythm right 
for the intro / verses, and the choruses are pretty easy to figure out the rhythm. 
Listen to the song for how many times to play each part.  
I know its not perfect, I think Im missing a few of the variations to the end of 
the verses, but i think its pretty close. Hope you like the tab!

Tuning: Standard
[ Tab from: http://www.guitaretab.com/i/i-94/175630.html ]
Intro / Verse
e|-------------------------------------------------|
B|-------------------------------------------------|
G|-------------------------------------------------|
D|--3--3-3--3--3-3--3-6--6-6--6--6-6--6-10--10-10--|
A|--3--3-3--3--3-3--3-6--6-6--6--6-6--4-10--10-10--|
E|--1--1-1--1--1-1--1-4--4-4--4--4-4--4-8---8--8---|
       * *     * *       * *     * *        *  *      
e|-------------------------------------------------|
B|-------------------------------------------------|
G|-------------------------------------------------|
D|--10--10-10--10--10-10--10-10--10--10-10--10-----|
A|--10--10-10--10--10-10--10-10--10--10-10--10-----|
E|--8---8--8---8---8--8---8--8---8---8--8---8------|
        *  *       *      *  *       *  *   

Chorus

e|-------------------------------------------------|
B|-------------------------------------------------|
G|----------------------8--------------------------|
D|--3---------6---------8---------8----------------|
A|--3-(x7)----6-(x7)----6-(x7)----8-(x7)-----------|
E|--1---------4---------6---------6----------------|

Related for Go Back In Time tab