Song name
# A B C D E F G H I J K L M N O P Q R S T U V W X Y Z

I Am Ghost - Rock N Roll High School Murder tab

Help us improve GuitareTab! Take a short survey!
I AM GHOST - ROCK N ROLL HIGH SCHOOL MURDER
TABBED BY GEORGE WILLIAMS 
DROPPED D TUNING (DADBGE) 

okk on of the last songs in the album to tab. REALLY easy this time.. just
octaves mainly for the lead guitar. go nuts.
comment with any corrections you have.
cheeeers.
oh and have a look at my other i am ghost tabs (Y) good lad.

legend: 

| b    bend 
| r    return 
| /    slide up 
| \    slide down 
| h    hammer on 
| p    pull off 
| *    pinch harmonic 
| ~    tremolo 
| ...  palm muted 
| x    muted note 
| (n)  optional note 
| tp   tremolo picked
| ==   hold bend


INTRO:
play through 4 times

|------------------------------------|---------------------------------|
|------------------------------------|---------------------------------|
|------------------------------------|---------------------------------|
|---------7---------------9----------|-------3---3---3---2---2-3-2-----|
|-------------8---------------10-----|---------------------5-------5-0-|
|-7-7-7-7---7---7-7-7-7-7---7----7-7-|-3-3-3---3---3---3---------------|
  . . . .   .   . . . . .   .    . .   . . .   .   .   .


VERSE 1:
take each chord as 2 strums.

|-----------------------------------------|---------------------------------|
|-----------------------------------------|---------------------------------|
|-9-9-9-9-9-9-9-9-14-14-14-14-12-12-10-10-|-9-9-9-9-9-9-9-9-5-5-5-5-7-7-7-7-|
|-x-x-x-x-x-x-x-x--x--x--x--x--x--x--x--x-|-x-x-x-x-x-x-x-x-x-x-x-x-x-x-x-x-|
|-7-7-7-7-7-7-7-7-12-12-12-12-10-10--8--8-|-7-7-7-7-7-7-7-7-3-3-3-3-5-5-5-5-|
|-----------------------------------------|---------------------------------|

|----------------------------------------------------------|
|----------------------------------------------------------|
|-2-2-2-2-2-2-2-4-4-5-5-5-5-5-5-5-5-7-7-7-7-7-7-7-7-(9~~)--|
|-x-x-x-x-x-x-x-x-x-x-x-x-x-x-x-x-x-x-x-x-x-x-x-x-x--x-----|
|-0-0-0-0-0-0-0-2-2-3-3-3-3-3-3-3-3-5-5-5-5-5-5-5-5-(7~~)--|
|----------------------------------------------------------|


PRE VERSE:

|------------------------------------|---------------------------------|
|------------------------------------|---------------------------------|
|------------------------------------|---------------------------------|
|---------7---------------9----------|-------3---3---3---2---2-3-2-----|
|-------------8---------------10-----|---------------------5-------5-0-|
|-7-7-7-7---7---7-7-7-7-7---7----7-7-|-3-3-3---3---3---3---------------|
  . . . .   .   . . . . .   .    . .   . . .   .   .   .

|------------------------------------|-----------------------------|
|------------------------------------|-----------------------------|
|------------------------------------|---------------5---5---4---4-|
|---------7---------------9----------|-------3---3---x---x---x---x-|
|-------------8---------------10-----|---------------3---3---2---2-|
|-7-7-7-7---7---7-7-7-7-7---7----7-7-|-3-3-3---3---3---3---3---3---|
  . . . .   .   . . . . .   .    . .   . . .   .   .   .   .   .


VERSE 2:
once again take each chord as 2 strums

|-----------------------------------------|---------------------------------|
|-----------------------------------------|---------------------------------|
|-9-9-9-9-9-9-9-9-14-14-14-14-12-12-10-10-|-9-9-9-9-9-9-9-9-5-5-5-5-7-7-7-7-|
|-x-x-x-x-x-x-x-x--x--x--x--x--x--x--x--x-|-x-x-x-x-x-x-x-x-x-x-x-x-x-x-x-x-|
|-7-7-7-7-7-7-7-7-12-12-12-12-10-10--8--8-|-7-7-7-7-7-7-7-7-3-3-3-3-5-5-5-5-|
|-----------------------------------------|---------------------------------|

|--------------------------------------------------------------|
|--------------------------------------------------------------|
|-9-9-9-9-9-9-9-9-14-14-14-16-16-17-17-21-21-21-21-21-21-21-21-|
|-x-x-x-x-x-x-x-x--x--x--x--x--x--x--x--x--x--x--x--x--x--x--x-|
|-7-7-7-7-7-7-7-7-12-12-12-14-14-15-15-19-19-19-19-19-19-19-19-|
|--------------------------------------------------------------|

|-----------------------------|
|-----------------------------|
|-19-19-19-19-17-17-16-16-14~-|
|--x--x--x--x--x--x--x--x--x--|
|-17-17-17-17-15-15-14-14-12~-|
|-----------------------------|

|----------------------------------------------------------|
|----------------------------------------------------------|
|-2-2-2-2-2-2-2-4-4-5-5-5-5-5-5-5-5-7-7-7-7-7-7-7-7-(9~~)--|
|-x-x-x-x-x-x-x-x-x-x-x-x-x-x-x-x-x-x-x-x-x-x-x-x-x--x-----|
|-0-0-0-0-0-0-0-2-2-3-3-3-3-3-3-3-3-5-5-5-5-5-5-5-5-(7~~)--|
|----------------------------------------------------------|


CHORUS:
same again with the strums.

|-------------------------------------------------------------------------|
|-------------------------------------------------------------------------|
|-5-5-5-5-5-5-5-5-9-9-9-9-9-9-9-9-10-10-10-10-10-10-10-10-7-7-7-7-7-7-7-7-|
|-x-x-x-x-x-x-x-x-x-x-x-x-x-x-x-x--x--x--x--x--x--x--x--x-x-x-x-x-x-x-x-x-|
|-3-3-3-3-3-3-3-3-7-7-7-7-7-7-7-7--8--8--8--8--8--8--8--8-5-5-5-5-5-5-5-5-|
|-------------------------------------------------------------------------|

|---------------------------------------------------------------------------------|
|---------------------------------------------------------------------------------|
|-5-5-5-5-5-5-5-5-9-9-9-9-9-9-9-9-10-10-10-10-10-10-10-10-12-12-12-12-12-12-12-12-|
|-x-x-x-x-x-x-x-x-x-x-x-x-x-x-x-x--x--x--x--x--x--x--x--x--x--x--x--x--x--x--x--x-|
|-3-3-3-3-3-3-3-3-7-7-7-7-7-7-7-7--8--8--8--8--8--8--8--8-10-10-10-10-10-10-10-10-|
|---------------------------------------------------------------------------------|


BREAK:
just strum each once.

|------------------------------------|
|------------------------------------|
|-5---9---10---7---5---9---10---12---|
|-x---x----x---x---x---x----x----x---|
|-3---7----8---5---3---7----8---10---|
|------------------------------------|


BRIDGE:

|----------------------------------------------------------------------------------|
|----------------------------------------------------------------------------------|
|-5-5-5-5/10-10-9-9-7-7-7-7/12-12-10-10-9-9-9-9-9-9-9-9-7-7-7-7-7-7-7-7-9-10-12-14-|
|-x-x-x-x--x--x-x-x-x-x-x-x--x--x--x--x-x-x-x-x-x-x-x-x-x-x-x-x-x-x-x-x-x--x--x--x-|
|-3-3-3-3--8--8-7-7-5-5-5-5-10-10--8--8-7-7-7-7-7-7-7-7-5-5-5-5-5-5-5-5-7--8-10-12-|
|----------------------------------------------------------------------------------|
 
dont palm mute >>

|------------------------------------|---------------------------------|
|------------------------------------|---------------------------------|
|------------------------------------|---------------------------------|
|---------7---------------9----------|-------3---3---3---2---2-3-2-----|
|-----7-------8-------7-------10-----|---3-----------------5-------5-0-|
|-7-7---7---7---7-7-7---7---7----7-7-|-3---3---3---3---3---------------|

|------------------------------------|---------------------|
|------------------------------------|---------------------|
|------------------------------------|---------------------|
|---------7---------------9----------|-------3---3---3---2-|
|-----7-------8-------7-------10-----|---3-----------------|
|-7-7---7---7---7-7-7---7---7----7-7-|-3---3---3---3---3---|

>REPEAT CHORUS<
>REPEAT CHORUS<
>REPEAT INTRO<

and youre done. told you it was easy.
comments, corrections, yehh you know what to do...
Related for Rock N Roll High School Murder tab