Guitaretab - guitar tabs
Song name
# A B C D E F G H I J K L M N O P Q R S T U V W X Y Z

I Am Ghost - Dont Wake Up tab

I AM GHOST - DONT WAKE UP
TABBED BY GEORGE WILLIAMS 
DROPPED C TUNING (CGCFAD) 

okk on of the last songs in the album to tab. quite a fun intro, but its
octaves mainly for the lead guitar, so pretty easy.
however, im doing this at 2 in the morning on laptop speakers, so there'll
be some parts wrong. i'll update it tomorrow.
comment with any corrections you have.
cheeeers.
oh and have a look at my other i am ghost tabs (Y) good lad.

legend: 

| b    bend 
| r    return 
| /    slide up 
| \    slide down 
| h    hammer on 
| p    pull off 
| *    pinch harmonic 
| ~    tremolo 
| ...  palm muted 
| x    muted note 
| (n)  optional note 
| tp   tremolo picked
| ==   hold bend


INTRO pt.1:
play twice

|----------------------------------------|------------------------------------|
|--------------------8-8-----------------|------------------------------------|
|----------------------------------------|------------------------------------|
|-7--7-7-7-9-9-10-10-----10-10-9h10p9-7--|-----10---9h10p9-------10----9h10p9-|
|----------------------------------------|-8-8----8--------10-10----10--------|
|----------------------------------------|------------------------------------|

|--------------------------------------|---------------------------------|
|--------------------8-8---------------|----------8----------------------|
|--------------------------------------|--------------------10--9-7------|
|-7--7-7-7-9-9-10-10-----10-10-9-10-10-|-10--9-10---10-9-10---------10-9-|
|--------------------------------------|---------------------------------|
|--------------------------------------|---------------------------------|


INTRO pt.2:

|---------------------------------------|-------------------------------------------|
|---------------------------------------|-------------------------------------------|
|-------12-12-9-9-10-10-9-9-------------|-------12-12-------------12-12-------------|
|-10-10---------------------10-10-12-12-|-10-10-------10-10-10-10-------10-9-7----7-|
|---------------------------------------|--------------------------------------10---|
|---------------------------------------|-------------------------------------------|


VERSE:

|-----------------------------------------------------------------|
|-----------------------------------------------------------------|
|-----------------------------------------------------------------|
|-----------------------------------------------------------------|
|-----7-----7---7-----7-----7---7-----5-----5---5-----3-----2-----|
|-7-7-7-7-7-7-7-7-7-7-7-7-7-7-7-7-5-5-5-5-5-5-5-5-3-3-3-3-2-2-2-2-|

|---------------------------------|-----------------------------------------------|
|---------------------------------|-----------------------------------------------|
|-------9-9-9-9-9-9-9-9-9-9-9-9-9-|-7-7-7-7-7-7-7-7-7-7-7-7-7-7-7-7---------------|
|-7-7-7---------------------------|---------------------------------10-10-10-10---|
|---------------------------------|-----------------------------------------------| ----\
|---------------------------------|-----------------------------------------------|
                                                                                    play twice
--------------------------------|
--------------------------------|                                                    /
--------------------------------|    -----------------------------------------------/
10-10-10-10-9-9-9-9-10-10-10-10-|
--------------------------------|
--------------------------------|

[ Tab from: http://www.guitaretab.com/i/i-am-ghost/175430.html ]
PRECHORUS:
play twice

|---------------------------------|------------------------|
|-----------10--------------------|------------------------|
|-----9------------10-----9---7---|-/10--9-7-----7-----7-9-|
|-7-7---7-7----7-7----7-7---7---7-|----------10-----10-----|
|---------------------------------|------------------------|
|---------------------------------|------------------------|


CHORUS 1:

|-------------------------------------------------------------|
|-------------------------------------------------------------|
|-14-14-14-14-14-14-12-12-12-12-12-12-9-9-9-9-9-9-17-17-16-16-|
|--x--x--x--x--x--x--x--x--x--x--x--x-x-x-x-x-x-x--x--x--x--x-| x2
|-12-12-12-12-12-12-10-10-10-10-10-10-7-7-7-7-7-7-15-15-14-14-|
|-------------------------------------------------------------|

|---------------------------------|
|---------------------------------|
|-14-14-14-14-14-14-14-16/17------|
|--x--x--x--x--x--x--x--x--x------|
|-12-12-12-12-12-12-12-14/15--0~--|
|-----------------------------0~--|

>REPEAT VERSE<
>REPEAT PRECHORUS<


CHORUS 2:
play twice

|-------------------------------------------------------------|
|-------------------------------------------------------------|
|-14-14-14-14-14-14-12-12-12-12-12-12-9-9-9-9-9-9-17-17-16-16-|
|--x--x--x--x--x--x--x--x--x--x--x--x-x-x-x-x-x-x--x--x--x--x-| x2
|-12-12-12-12-12-12-10-10-10-10-10-10-7-7-7-7-7-7-15-15-14-14-|
|-------------------------------------------------------------|

|------------------------------------------------------------------|
|------------------------------------------------------------------|
|-14-14-14-14-14-14-14-16-16-16-16-17-17--12-12--10-10-10-10-10-10-|
|--x--x--x--x--x--x--x--x--x--x--x--x--x---x--x---x--x--x--x--x--x-|
|-12-12-12-12-12-12-12-14-14-14-14-15-15--10-10---8--8--8--8--8--8-|
|------------------------------------------------------------------|


BREAK:

|----------------------------------------------------------------|
|----------------------------------------------------------------|
|-10-10-10-10-10-10-10-10-10-10-10-10-12-12-12-12-16-16-16-16/17-|
|--x--x--x--x--x--x--x--x--x--x--x--x--x--x--x--x--x--x--x--x--x-|
|--8--8--8--8--8--8--8--8--8--8--8--8-10-10-10-10-14-14-14-14/15-|
|----------------------------------------------------------------|


BRIDGE:
play twice

|----------------------------------------------------------------------------|
|----------------------------------------------------------------------------|
|-14-14-14--14-14-14--14-14-14-14-14--10-10-10--10-10-10--12-12-12--12-12-12-|
|--x--x--x---x--x--x---x--x--x--x--x---x--x--x---x--x--x---x--x--x---x--x--x-|
|-12-12-12--12-12-12--12-12-12-12-12---8--8--8---8--8--8--10-10-10--10-10-10-|
|----------------------------------------------------------------------------|


MIDDLE:
clean w/reverb & chorus

|-------------|----------------|
|----13-12-13-|-12h13-12-------|
|-12----------|----------12----|  
|-------------|-------------14-|  x3
|-------------|----------------|
|-------------|----------------|
   ^^x3            ^^x1

|-15----15----13----13----12-------12-------12----|
|----13----13----13----13----13-------13-------13-|
|-------------------------------14-------14-------|
|-------------------------------------------------| x2.5
|-------------------------------------------------|
|-------------------------------------------------|


>REPEAT CHORUS 2<
>REPEAT BREAK<
>REPEAT INTRO till end.<

and thats it. like i said i'll correct it in the morning when i have decent speakers on. 
cheers for looking.
Related for Dont Wake Up tab
Dont Wake Up chords by I Am Ghost