Guitaretab - guitar tabs
Song name
# A B C D E F G H I J K L M N O P Q R S T U V W X Y Z

I Am Ghost - Dont Wake Up tab

So... this is my first tab... umm... comment me with any corrections or tips!! THANKS!!!!!!

this is just the intro, i'll add on to it when i have the time.
enjoy for now!!

Timing: 
one bar in between the letters = sixteenth note
two bars in between the letters = eighth note
three bars = dotted eighth note
four bars = quarter note
eight bars = half note
sixteen = whole

1st guitar: lead
2nd guitar: rhythm


1ST GUITAR: (Timmy)

D|-------------------------------------------------------------------------|
A|-----------------------8-8-----------------------------------------------|
F|-------------------------------------------------------------------------|
C|----7--7-7-7-9-9-10-10-----10-10-9h10-7-----9-9h10p9------9-9h10p9-7--7-7|
G|----------------------------------------8------------10------------------|
C|-------------------------------------------------------------------------|

D|-------------------------------------------------------------------------|
A|-------------8-8-----------------------8---------------------------------|
F|-------------------------------------------------10--9--7----------------|
C|-7-9-9-10-10-----10-10-9-7-10--10-9h10---10-9-10----------10-9-7--7-7-7-9|
G|-------------------------------------------------------------------------|
C|-------------------------------------------------------------------------|

D|-------------------------------------------------------------------------|
A|---------8-8------------------------------------------------------------8|
F|-------------------------------------------------------------------------|
C|-9-10-10-----10-10-9h10-7-----9-9h10p9------9-9h10p9-7--7-7-7-9-9-10-10--|
G|--------------------------8------------10--------------------------------|
C|-------------------------------------------------------------------------|

D|-------------------------------------------------------------------------|
A|-8-----------------------8-----------------------------------------------|
F|-----------------------------------10--9--7---------------12--9--10--9---|
C|---10-10-9-7-10--10-9h10---10-9-10----------10-9-7----10-----------------|
G|-------------------------------------------------------------------------|
C|-------------------------------------------------------------------------|
[ Tab from: http://www.guitaretab.com/i/i-am-ghost/175454.html ]
D|-------------------------------------------------------------------------|
A|-------------------------------------------------------------------------|
F|--------------12----------12---------------------------------------------|
C|10--12----10------10--10------10-9-7----7n-------------------------------|
G|-------------------------------------10----------------------------------|
C|-------------------------------------------------------------------------|

2ND GUITAR: Chad

D|-------------------------------------------------------------------------|
A|-------------------------------------------------------------------------|
F|-------------------------------------------------------------------------|
C|-----7--7-7-7--7-7-7--7-7-7--7-7-7-3--3-3--3-3-3-5--5-5--5-5-5-7--7-7-7--|
G|-----7--7-7-7--7-7-7--7-7-7--7-7-7-3--3-3--3-3-3-5--5-5--5-5-5-7--7-7-7--|
C|-----7--7-7-7--7-7-7--7-7-7--7-7-7-3--3-3--3-3-3-5--5-5--5-5-5-7--7-7-7--|

D|-------------------------------------------------------------------------|
A|-------------------------------------------------------------------------|
F|-------------------------------------------------------------------------|
C|7-7-7--7-7-7--7-7-7-10--10-10-10-10-10-10-10-5--5--5-5-5-7--7-7-7--7-7-7-|
G|7-7-7--7-7-7--7-7-7-10--10-10-10-10-10-10-10-5--5--5-5-5-7--7-7-7--7-7-7-|
C|7-7-7--7-7-7--7-7-7-10--10-10-10-10-10-10-10-5--5--5-5-5-7--7-7-7--7-7-7-|

D|-------------------------------------------------------------------------|
A|-------------------------------------------------------------------------|
F|-------------------------------------------------------------------------|
C|7-7-7--7-7-7-3--3-3--3-3-3-5--5-5--5-5-5-7--7-7-7--7-7-7--7-7-7--7-7-7-10|
G|7-7-7--7-7-7-3--3-3--3-3-3-5--5-5--5-5-5-7--7-7-7--7-7-7--7-7-7--7-7-7-10|
C|7-7-7--7-7-7-3--3-3--3-3-3-5--5-5--5-5-5-7--7-7-7--7-7-7--7-7-7--7-7-7-10|

D|-------------------------------------------------------------------------|
A|-------------------------------------------------------------------------|
F|-------------------------------------------------------------------------|
C|10-10-10-10-10-10-10-10-5--5--5-5-5-7n-----------------------------------|
G|10-10-10-10-10-10-10-10-5--5--5-5-5-7n-----------------------------------|
C|10-10-10-10-10-10-10-10-5--5--5-5-5-7n-----------------------------------|


| /  slide up
| \  slide down
| h  hammer-on
| p  pull-off
| n  hold note
| ~  vibrato
| +  harmonic
| x  Mute note
Related for Dont Wake Up tab
Dont Wake Up chords by I Am Ghost