Song name
# A B C D E F G H I J K L M N O P Q R S T U V W X Y Z

I Am Ghost - Killer Likes Candy tab

Alright, I tabbed this for standard cuz I'm too lazy to do the tuning they originally 
They actually have Drop D and 1/2 step down, so everything here that needs to be changed 
to the tuning, you'll have to do yourself.
I didn't tab out the actual strumming pattern, so you'll have to figure it out. There 
be any errors, but if they are, tell me.

Email: bleedingxmascarax3@gmail.com.

Thanks, and enjoy.
-Kat


"Killer Likes Candy" - I Am Ghost

Intro lead:
|----------------------------------------------------------------|
|----------------------------------------------------------------|
|-5--7--8--7--5--0------5--7--8--7--5--0-------------------------|
|----------------------------------------------------------------|
|----------------------------------------------------------------|
|----------------------------------------------------------------|

|----------------------------------------------------------------|
|----------------------------------------------------------------|
|---1h3--1h3---1--0----------------------------------------------|
|--------------------3--1--0--1----------------------------------|
|----------------------------------------------------------------|
|----------------------------------------------------------------|
[2x]

Intro rhythm:
   C5      C5     G#      G
|----------------------------------------------------------------|
|----------------------------------------------------------------|
|----------------------------------------------------------------|
|-10-10---10-10---6-6----5-5-------------------------------------|
|-10-10---10-10---6-6----5-5-------------------------------------|
|-8--8----8--8----4-4----3-3-------------------------------------|
(you play the power chords twice each, listen to the song for when to play...Then you 
play the chords.)


Verse:
(both guitars play this the first 3 times)
    F5                  G#5            Eb5  G5
|----------------------------------------------------------------|
|----------------------------------------------------------------|
|--------------------------------------66------------------------|
|---33333333333333333333666666666666---66--55--------------------|
|---33333333333333333333666666666666---88--55--------------------|
|---11111111111111111111444444444444-------33--------------------|
[4x]
(thats not exactly how many times to play it, you play the F5 for two measures then the 
for one measure, then the Eb5 and G5 twice each before repeating]

(After the first 3 times there's this lead:)
|----------------------------------------------------------------|
|----------------------------------------------------------------|
|----------------------------------------------------------------|
|----------------------------------------------------------------|
|---3-5-3-3---3-5-3-3--6-8-6-6--1-3-1-1--------------------------|
|----------------------------------------------------------------|
[2x]


Chorus:
C5     /   C5   /   G#5  /  Bb5   /  C5   /  C5 /   G#5  /  G5 /
|----------------------------------------------------------------|
|----------------------------------------------------------------|
|----------------------------------------------------------------|
|-10101010101010-6666666-88888888--10101010101010--6666666-55555-|
|-10101010101010-6666666-88888888--10101010101010--6666666-55555-|
|-8 8-8--8-8-8-8-4444444-66666666--8-8-8--8-8-8-8--4444444-33333-|
[2x]
(once again, not the actual number of times you play each chord but you get the point)


[Intro, but just once]

[Verse]

[Chorus]

Bridge:
|----------------------------------------------------------------|
|----------------------------------------------------------------|
|--555--555--555-------------------------------------------------|
|--555--555--555--333---5-3-5------------------------------------|
|--333--333--333--333---5-3-5------------------------------------|
|-----------------111---3-1-3------------------------------------|

|----------------------------------------------------------------|
|----------------------------------------------------------------|
|--555--555--555-------8-----------------------------------------|
|--555--555--555--333--8-3-5-------------------------------------|
|--333--333--333--333--6-3-5-------------------------------------|
|-----------------111----1-3-------------------------------------|
[2x]

Then there's a solo and the rest of the song but I've got no clue how it goes, I'm sorry.
Tap to rate this tab
# A B C D E F G H I J K L M N O P Q R S T U V W X Y Z