Song name
# A B C D E F G H I J K L M N O P Q R S T U V W X Y Z

I Am Kloot - Mermaids tab

Tab: Serey Siv
Email: kuniflare@hotmail.com
Song: I Am Kloot - Mermaids
Date: March 9th, 2004
----------------------------

This is a great song like all the others from I Am 
Kloot. Try searching for the instrumental version 
which is awesome too.

Chords:
Am   [x02210]
C    [332010]
Em/G [32200x]
Bb   [113331]


[[Whole Song]]

C Em/G Bb Am


[[Chorus]]

|-------3-----------3-----|-------3-----------3-----|
|---5-----5-----5-----5---|---5-----5-----5-----5---|
|-5---5-----5-4---4-----4-|-3---3-----3-2---2-----2-|
|-------------------------|-------------------------|
|-------------------------|-------------------------|
|-------------------------|-------------------------|

|-------3-----------3-----|-------------------------|
|---5-----5-----5-----5---|-5-----5-----5-----5-----|
|-5---5-----5-4---4-----4-|---5-----5-----5-----5---|
|-------------------------|-----5-----5-----5-----5-|
|-------------------------|-------------------------|
|-------------------------|-------------------------|
Tap to rate this tab
# A B C D E F G H I J K L M N O P Q R S T U V W X Y Z