Song name
# A B C D E F G H I J K L M N O P Q R S T U V W X Y Z

I Am Kloot - Same Deep Water As Me tab

Help us improve GuitareTab! Take a short survey!
Same Deep Water As Me - I Am Kloot 
A great tune by Manchester's best band of the moment

Chords:

Bm   [224432]
G    [355433]
D    [x57775]
F#m  [244222]
Em   [022000]


INTRO

|----------------|-----------------|
|----3-3-3-3/5---|-----3-3-3---2---|
|----4-4-4-4/6---|-----4-4-4---2---|
|----------------|---------------2-|
|-2------------7-|-2---------------|
|----------------|-----------------|

|-----------------|-----------------|
|-----3-3-3/--5---|-----3-3-3---2---|
|-----4-4-4/--6---|-----4-4-4---2---|
|-----------------|-----------------|
|-2-------------7-|-----------------|
|-----------------|-3---------------|


VERSE 1

Bm*               G
 Swim out to the ocean
Bm                         G
 Drown your thought out at sea
D                          G
 And dip your hands in the water
F#m                     G
 The same deep water as me


VERSE 2

Bm*                        G
 You've been watching for cloudbursts
Bm                       G
 You've been praying for rain
D                        G
 Drench your soul in the water
F#m                        G
 Cleanse your heart on this day
F#m                        G 
 Cleanse your heart on this day


INSTRUMENTAL

Em   G   x4  
then G for one bar 

A second guitar can play this riff:              
|---2-----2-----2-|---2-----2-----2-|
|-----3-----3-----|-----3-----3-----|
|(4)----4-----4---|-------4-----4---| X4
|-----------------|-----------------|
|-----------------|-----------------|
|-----------------|-----------------|


VERSE 3

Bm*            G
 The river of love
Bm                      G
 Runs deep through the night
D                      G
 Rolls you in with the waves
F#m                     G
 And drags you out with the tides


VERSE 4

Bm*               G
 Swim out to the ocean
Bm                             G 
 And drown our thoughts out at sea
D                             G
 You dipped your hands in the water
F#m                     G
 The same deep water as me
F#m                     G
 The same deep water as me 


INSTRUMENTAL
Same as above


OUTRO

INTRO

|----------------|-----------------|
|----3-3-3-3/5---|-----3-3-3---2---|
|----4-4-4-4/6---|-----4-4-4---2---|
|----------------|---------------2-|
|-2------------7-|-2---------------|
|----------------|-----------------|
                                       Bm*
|-----------------|-----------------|--2-------||
|-----3-3-3/--5---|-----3-3-3---2---|--3-------||
|-----4-4-4/--6---|-----4-4-4---2---|--4-------||
|-----------------|-----------------|--4-------||
|-2-------------7-|-----------------|--2-------||
|-----------------|-3---------------|----------||


Note: The first Bm of each verse is played as an upstroke
Related for Same Deep Water As Me tab