Guitaretab - guitar tabs
Song name
# A B C D E F G H I J K L M N O P Q R S T U V W X Y Z

I Am Kloot - Sold As Seen tab

Band: I am Kloot
Song: Sold as Seen
Tabber: Andrew Biles

Capo 7 - all relative to capo

Intro
|-0--0-0-----0--0-----0--0-----0-------|
|-1--1-1-----1--1-----1--1-----3p0-0h1-|
|-0--0-------0--0-----0--0-----1---0---|
|-2--2-------2--2-----3--3-----0---0---|
|-0--0-------x--x-----x--x-----2---2---|
|--------3-3-3--3-1-1-1--1-0-0-0---0---|

|-----0--0-----0--0-----0--0-----0----|
|-----1--1-----1--1-----1--1-----3p0--|
|-----0--------0--0-----0--0-----1----|
|-----2--------2--2-----3--3-----0----|
|-0-0-0--------x--x-----x--x-----2----|
|----------3-3-3--3-1-1-1--1-0-0-0----|

Verse
|-----0--0-----0--0-----0--0-----0--0-|
|-----1--1-----1--1-----1--1-----3--3-|
|-----0--------0--0-----0--0-----1--1-|
|-----2--------2--2-----3--3-----0--0-|
|-0-0-0--------x--------x--------2----|
|----------3-3-3----1-1-1----0-0-0----|

Chorus
|-----0--------0--------0--------0------|
|-----1--------1--------1--------3------|
|-----0--------0--------0--------1------|
|-----2--------2--------3--------0------|
|-0---0--------------------------2------|
|----------3--------1--------0---0------|
[ Tab from: http://www.guitaretab.com/i/i-am-kloot/55958.html ]
1st Break
|--------------------------------------------------------------|
|---------------------------------------------5----------------|
|-----4-5-4---4--------4-5-4----------4-5-4----------4-5-4-----|
|-5h7-------5----7-5h7-------5----5h7-------5----5h7-------5---|
|------------------------------7-----------------------------7-|
|--------------------------------------------------------------|

Other breaks
|------------------------------|
|-------------5----------------|
|-----4-5-4----------4-5-4-----|
|-5h7-------5----5h7-------5---|
|----------------------------7-|
|------------------------------|
                            x2

any questions? andrewbiles@hotmail.com
_______________________________
Lyrics (ultimate-lyrics.de):

You know the place where faces fit
i've heard they've got a name for it
lets go back to the sandy shores
the velvet skies are ours once more

we're fake, for real
our minds are steel
our eyes are green
we're sold as seen

i heard you joined the main parade
a hero dressed in ticker-tape
and go if all the worlds a trick
i'll take the sky and measure it
so leave your favourite photograph
the only thing you had that lasts
and go back to the sandy shores
the velvet skies are ours once more

there all for real
there is no deal
they're sold as seen

You know the place where faces fit
i've heard they've got a name for it
lets go back to the sandy shores
the velvet skies are yours once more

you're fake, for real
your minds are steel
your eyes are green
you're sold as seen

sold as seen

we're fake, for real
our minds are steel
our eyes are green
we're sold as seen

sold as seen

sold as seen
Related for Sold As Seen tab
Sold As Seen chords by I Am Kloot