Song name
# A B C D E F G H I J K L M N O P Q R S T U V W X Y Z

I Am Kloot - No Fear Of Falling tab

This is the main melody throughout the whole song. There are some slight alterations for
chorus, bridge etc. but the basics are all here. If you have any suggestions or
please email me:

maluspumila@email.com

cheers,
Jonny

Standard tuning

Symbols:

3h4 = hammer on 3 to 4


Capo on 1st fret

  C
e---------------------------0---0----0-------------------------------0---0------------|
B----------1---1---1---1----1---1----1--------------1---1---1---1----1---1------------|
G-----0--2---0--------------0---0-0--0---------0--2---0--------------0---0-------0----|
D-0h2------------2---0------2-----2--2----0h2-------------2---0------2---------0---0--|
A------------------------3--3-----3--3----------------------------3--3-----3-2--------|
E-------------------------------------------------------------------------------------|

e------------------------------------0---0----0------|
B------------------------------------1---1----1------|
G---0---0---0---0---0-------0--------0---0-0--0------|
D------------------------------------2-----2--2------|
A-0-------------------------------3--3-----3--3------|
E-----3---1---0---1-----1-3-----3--------------------|			....repeat
Tap to rate this tab
# A B C D E F G H I J K L M N O P Q R S T U V W X Y Z