Song name
# A B C D E F G H I J K L M N O P Q R S T U V W X Y Z

I Am The Avalanche - A New Disaster tab

-------------------------------------------------------------------------------
			A NEW DISASTER - I Am The Avalanche
-------------------------------------------------------------------------------

Great song by I Am The Avalanche, the tabs I saw were wrong so I thought I'd
have a go... :) I've tested this tab several times and it seems perfect to me!

Lyrics are at the bottom of the page... enjoi :D


Tabbed by: angelsairwaves


Tuning: Standard Tuning (E, A, D, G, B, e)


| /  slide up
| ~  vibrato
| x  Mute note


 * INTRO / RIFF A *



   Gtr 1
e|---------------------------------------------------------------------------|
B|---------------------------------------------------------------------------|
G|---------------------------------------------------------------------------|
D|---8-8-8-8-4-4-4-4-6-6-6-6-7-7-7-7--8-8-8-8-4-4-4-4-6-6-6-6-7-7-7-7--------|
A|---x-x-x-x-x-x-x-x-x-x-x-x-x-x-x-x--x-x-x-x-x-x-x-x-x-x-x-x-x-x-x-x--------|
E|---6-6-6-6-2-2-2-2-4-4-4-4-5-5-5-5--6-6-6-6-2-2-2-2-4-4-4-4-5-5-5-5--------|
 |
 | Gtr 2
e|---------------------------------------------------------------------------|
B|---------------------------------------------------------------------------|
G|---------------------------------------------------------------------------|
B|---------------------------------------------------------------------------|
A|---------------------------------------------------------------------------|
E|---------------------------------------------------------------------------|
 

   Gtr 1
e|---------------------------------------------------------------------------|
B|---------------------------------------------------------------------------|
G|---------------------------------------------------------------------------|
D|---8-8-8-8-4-4-4-4-6-6-6-6-7-7-7-7--8-8-8-8-4-4-4-4-6-6-6-6-7-7-7-7--------|
A|---x-x-x-x-x-x-x-x-x-x-x-x-x-x-x-x--x-x-x-x-x-x-x-x-x-x-x-x-x-x-x-x--------|
E|---6-6-6-6-2-2-2-2-4-4-4-4-5-5-5-5--6-6-6-6-2-2-2-2-4-4-4-4-5-5-5-5--------|
 |
 | Gtr 2
e|---------------------------------------------------------------------------|
B|---------------------------------------------------------------------------|
G|---------------------------------------------------------------------------|
D|---8-8-8-8-4-4-4-4-6-6-6-6-7-7-7-7--8-8-8-8-4-4-4-4-6-6-6-6-7-7-7-7--------|
A|---8-8-8-8-4-4-4-4-6-6-6-6-7-7-7-7--8-8-8-8-4-4-4-4-6-6-6-6-7-7-7-7--------|
E|---6-6-6-6-2-2-2-2-4-4-4-4-5-5-5-5--6-6-6-6-2-2-2-2-4-4-4-4-5-5-5-5--------|



 * VERSE *



   Gtr 1 (can be played in 5ths or octaves)
e|---------------------------------------------------------------------------|
B|---------------------------------------------------------------------------|
G|---------------------------------------------------------------------------|
D|---------------------------------------------------------------------------|
A|---8-8-x-8-x-8-8-x-8-8-8-4-4-x-4-x-4-4-x-4-4-4-----------------------------|
E|---6-6-x-6-x-6-6-x-6-6-6-2-2-x-2-x-2-2-x-2-2-2-----------------------------|
 |
 | Gtr 2
e|---------------------------------------------------------------------------|
B|---------------------------------------------------------------------------|
G|---------------------------------------------------------------------------|
D|---------------------------------------------------------------------------|
A|---------------------------------------------------------------------------|
E|---------------------------------------------------------------------------|


   Gtr 1
e|---------------------------------------------------------------------------|
B|---------------------------------------------------------------------------|
G|---------------------------------------------------------------------------|
D|---------------------------------------------------------------------------|
A|---8-8-x-8-x-8-8-x-8-8-8-6-6-x-6-x-6-6-x-6-6-6-----------------------------|
E|---6-6-x-6-x-6-6-x-6-6-6-4-4-x-4-x-4-4-x-4-4-4-----------------------------|
 |
 | Gtr 2 
e|---------------------------------------------------------------------------|
B|---------------------------------------------------------------------------|
G|---------------------------------------------------------------------------|
D|---------------------------------------------------------------------------|
A|---------------------------------------------------------------------------|
E|---------------------------------------------------------------------------|


   Gtr 1
e|---------------------------------------------------------------------------|
B|---------------------------------------------------------------------------|
G|---------------------------------------------------------------------------|
D|---------------------------------------------------------------------------|
A|---8-8-x-8-x-8-8-x-8-8-8-4-4-x-4-x-4-4-x-4-4-4-----------------------------|
E|---6-6-x-6-x-6-6-x-6-6-6-2-2-x-2-x-2-2-x-2-2-2-----------------------------|
 |
 | Gtr 2
e|---------------------------------------------------------------------------|
B|---------------------------------------------------------------------------|
G|---------------------------------------------------------------------------|
D|---8-8-x-8-x-8-8-x-8-8-8-4-4-x-4-x-4-4-x-4-4-4-----------------------------|
A|---8-8-x-8-x-8-8-x-8-8-8-4-4-x-4-x-4-4-x-4-4-4-----------------------------|
E|---6-6-x-6-x-6-6-x-6-6-6-2-2-x-2-x-2-2-x-2-2-2-----------------------------|


   Gtr 1
e|---------------------------------------------------------------------------|
B|---------------------------------------------------------------------------|
G|---------------------------------------------------------------------------|
D|---------------------------------------------------------------------------|
A|---8-8-x-8-x-8-8-x-8-8-8-6-6-x-6-x-6-6-6-6-6-6-----------------------------|
E|---6-6-x-6-x-6-6-x-6-6-6-4-4-x-4-x-4-4-4-4-4-4-----------------------------|
 |
 | Gtr 2 
e|---------------------------------------------------------------------------|
B|---------------------------------------------------------------------------|
G|---------------------------------------------------------------------------|
D|---8-8-x-8-x-8-8-x-8-8-8-6-6-x-6-x-6-6-6-6-6-6-----------------------------|
A|---8-8-x-8-x-8-8-x-8-8-8-6-6-x-6-x-6-6-6-6-6-6-----------------------------|
E|---6-6-x-6-x-6-6-x-6-6-6-4-4-x-4-x-4-4-4-4-4-4-----------------------------|



 * PRE CHORUS *



   Gtr 1 + 2
e|---------------------------------------------------------------------------|
B|---------------------------------------------------------------------------|
G|---------------------------------------------------------------------------|
D|---4-4-4-4-4-4-4-4-4-4-4-4-4-4-4-4--3-3-3-3-3-3-3-3-3-3-3-3-3-3-3-3--------|
A|---4-4-4-4-4-4-4-4-4-4-4-4-4-4-4-4--3-3-3-3-3-3-3-3-3-3-3-3-3-3-3-3--------|
E|---2-2-2-2-2-2-2-2-2-2-2-2-2-2-2-2--1-1-1-1-1-1-1-1-1-1-1-1-1-1-1-1--------|



 * CHORUS *



   Gtr 1 + 2
e|---------------------------------------------------------------------------|
B|---------------------------------------------------------------------------|
G|---3-3-3-3-3-3-3-3-3-3-3-3-3-3-3-3--6-6-6-6-6-6-6-6-6-6-6-6-6-6-6-6--------|
D|---3-3-3-3-3-3-3-3-3-3-3-3-3-3-3-3--6-6-6-6-6-6-6-6-6-6-6-6-6-6-6-6--------|
A|---1-1-1-1-1-1-1-1-1-1-1-1-1-1-1-1--4-4-4-4-4-4-4-4-4-4-4-4-4-4-4-4--------|
E|---------------------------------------------------------------------------|


   Gtr 1 + 2
e|---------------------------------------------------------------------------|
B|---------------------------------------------------------------------------|
G|---------------------------------------------------------------------------|
D|---6-6-6-6-6-6-6-6-6-6-6-6-6-6-6-6--4-4-4-4-4-4-4-4-4-4-4-4-4-4-4-4--------|
A|---6-6-6-6-6-6-6-6-6-6-6-6-6-6-6-6--4-4-4-4-4-4-4-4-4-4-4-4-4-4-4-4--------|
E|---4-4-4-4-4-4-4-4-4-4-4-4-4-4-4-4--2-2-2-2-2-2-2-2-2-2-2-2-2-2-2-2--------|


   Gtr 1 + 2
e|---------------------------------------------------------------------------|
B|---------------------------------------------------------------------------|
G|---3-3-3-3-3-3-3-3-3-3-3-3-3-3-3-3--6-6-6-6-6-6-6-6-6-6-6-6-6-6-6-6--------|
D|---3-3-3-3-3-3-3-3-3-3-3-3-3-3-3-3--6-6-6-6-6-6-6-6-6-6-6-6-6-6-6-6--------|
A|---1-1-1-1-1-1-1-1-1-1-1-1-1-1-1-1--4-4-4-4-4-4-4-4-4-4-4-4-4-4-4-4--------|
E|---------------------------------------------------------------------------|


   Gtr 1 + 2
e|---------------------------------------------------------------------------|
B|---------------------------------------------------------------------------|
G|---------------------------------------------------------------------------|
D|---3-3-3-3-3-3-3-3-3-3-3-3-3-3-3-3--3-3-3-3-3-3-3-3-3-3-3-3-3-3-3-3--------|
A|---3-3-3-3-3-3-3-3-3-3-3-3-3-3-3-3--3-3-3-3-3-3-3-3-3-3-3-3-3-3-3-3--------|
E|---1-1-1-1-1-1-1-1-1-1-1-1-1-1-1-1--1-1-1-1-1-1-1-1-1-1-1-1-1-1-1-1--------|



 * RIFF A *


  
   Gtr 1
e|---------------------------------------------------------------------------|
B|---------------------------------------------------------------------------|
G|---------------------------------------------------------------------------|
D|---8-8-8-8-4-4-4-4-6-6-6-6-7-7-7-7--8-8-8-8-4-4-4-4-6-6-6-6-7-7-7-7--------|
A|---x-x-x-x-x-x-x-x-x-x-x-x-x-x-x-x--x-x-x-x-x-x-x-x-x-x-x-x-x-x-x-x--------|
E|---6-6-6-6-2-2-2-2-4-4-4-4-5-5-5-5--6-6-6-6-2-2-2-2-4-4-4-4-5-5-5-5--------|
 |
 | Gtr 2
e|---------------------------------------------------------------------------|
B|---------------------------------------------------------------------------|
G|---------------------------------------------------------------------------|
D|---8-8-8-8-4-4-4-4-6-6-6-6-7-7-7-7--8-8-8-8-4-4-4-4-6-6-6-6-7-7-7-7--------|
A|---8-8-8-8-4-4-4-4-6-6-6-6-7-7-7-7--8-8-8-8-4-4-4-4-6-6-6-6-7-7-7-7--------|
E|---6-6-6-6-2-2-2-2-4-4-4-4-5-5-5-5--6-6-6-6-2-2-2-2-4-4-4-4-5-5-5-5--------|



 * VERSE 2 *



   Gtr 1
e|---------------------------------------------------------------------------|
B|---------------------------------------------------------------------------|
G|---------------------------------------------------------------------------|
D|---------------------------------------------------------------------------|
A|---8-8-x-8-x-8-8-x-8-8-8-4-4-x-4-x-4-4-x-4-4-4-----------------------------|
E|---6-6-x-6-x-6-6-x-6-6-6-2-2-x-2-x-2-2-x-2-2-2-----------------------------|
 |
 | Gtr 2
e|---------------------------------------------------------------------------|
B|---------------------------------------------------------------------------|
G|---------------------------------------------------------------------------|
D|---------------------------------------------------------------------------|
A|---------------------------------------------------------------------------|
E|---------------------------------------------------------------------------|


   Gtr 1
e|---------------------------------------------------------------------------|
B|---------------------------------------------------------------------------|
G|---------------------------------------------------------------------------|
D|---------------------------------------------------------------------------|
A|---8-8-x-8-x-8-8-x-8-8-8-6-6-x-6-x-6-6-x-6-6-6-----------------------------|
E|---6-6-x-6-x-6-6-x-6-6-6-4-4-x-4-x-4-4-x-4-4-4-----------------------------|
 |
 | Gtr 2 (let ring throughout)
e|---------------------------------------------------------------------------|
B|---2-----------------------------------------------------------------------|
G|------3--------------------------------------------------------------------|
D|---------------------------------------------------------------------------|
A|---------------------------------------------------------------------------|
E|---------------------------------------------------------------------------|


   Gtr 1
e|---------------------------------------------------------------------------|
B|---------------------------------------------------------------------------|
G|---------------------------------------------------------------------------|
D|---------------------------------------------------------------------------|
A|---8-8-x-8-x-8-8-x-8-8-8-4-4-x-4-x-4-4-x-4-4-4-----------------------------|
E|---6-6-x-6-x-6-6-x-6-6-6-2-2-x-2-x-2-2-x-2-2-2-----------------------------|
 |
 | Gtr 2
e|---------------------------------------------------------------------------|
B|---------------------------------------------------------------------------|
G|---------------------------------------------------------------------------|
D|---------------------------------------------------------------------------|
A|---------------------------------------------------------------------------|
E|---------------------------------------------------------------------------|


   Gtr 1
e|---------------------------------------------------------------------------|
B|---------------------------------------------------------------------------|
G|---------------------------------------------------------------------------|
D|---------------------------------------------------------------------------|
A|---8-8-x-8-x-8-8-x-8-8-8-6-6-x-6-x-6-6-x-6-6-6-----------------------------|
E|---6-6-x-6-x-6-6-x-6-6-6-4-4-x-4-x-4-4-x-4-4-4-----------------------------|
 |
 | Gtr 2 (let ring throughout)
e|---------------------------------------------------------------------------|
B|---2-----------------------------------------------------------------------|
G|------3--------------------------------------------------------------------|
D|---------------------------------------------------------------------------|
A|---------------------------------------------------------------------------|
E|---------------------------------------------------------------------------|


   Gtr 1
e|---------------------------------------------------------------------------|
B|---------------------------------------------------------------------------|
G|---------------------------------------------------------------------------|
D|---------------------------------------------------------------------------|
A|---8-8-x-8-x-8-8-x-8-8-8-4-4-x-4-x-4-4-x-4-4-4-----------------------------|
E|---6-6-x-6-x-6-6-x-6-6-6-2-2-x-2-x-2-2-x-2-2-2-----------------------------|
 |
 | Gtr 2
e|---------------------------------------------------------------------------|
B|---------------------------------------------------------------------------|
G|---------------------------------------------------------------------------|
D|---8-8-x-8-x-8-8-x-8-8-8-4-4-x-4-x-4-4-x-4-4-4-----------------------------|
A|---8-8-x-8-x-8-8-x-8-8-8-4-4-x-4-x-4-4-x-4-4-4-----------------------------|
E|---6-6-x-6-x-6-6-x-6-6-6-2-2-x-2-x-2-2-x-2-2-2-----------------------------|


   Gtr 1
e|---------------------------------------------------------------------------|
B|---------------------------------------------------------------------------|
G|---------------------------------------------------------------------------|
D|---------------------------------------------------------------------------|
A|---8-8-x-8-x-8-8-x-8-8-8-6-6-x-6-x-6-6-4-6-6-6-----------------------------|
E|---6-6-x-6-x-6-6-x-6-6-6-4-4-x-4-x-4-4-4-4-4-4-----------------------------|
 |
 | Gtr 2 
e|---------------------------------------------------------------------------|
B|---------------------------------------------------------------------------|
G|---------------------------------------------------------------------------|
D|---8-8-x-8-x-8-8-x-8-8-8-6-6-x-6-x-6-6-6-6-6-6-----------------------------|
A|---8-8-x-8-x-8-8-x-8-8-8-6-6-x-6-x-6-6-6-6-6-6-----------------------------|
E|---6-6-x-6-x-6-6-x-6-6-6-4-4-x-4-x-4-4-4-4-4-4-----------------------------|



 * PRE CHORUS *



   Gtr 1 + 2
e|---------------------------------------------------------------------------|
B|---------------------------------------------------------------------------|
G|---------------------------------------------------------------------------|
D|---4-4-4-4-4-4-4-4-4-4-4-4-4-4-4-4--3-3-3-3-3-3-3-3-3-3-3-3-3-3-3-3--------|
A|---4-4-4-4-4-4-4-4-4-4-4-4-4-4-4-4--3-3-3-3-3-3-3-3-3-3-3-3-3-3-3-3--------|
E|---2-2-2-2-2-2-2-2-2-2-2-2-2-2-2-2--1-1-1-1-1-1-1-1-1-1-1-1-1-1-1-1--------|



 * CHORUS *



   Gtr 1 + 2
e|---------------------------------------------------------------------------|
B|---------------------------------------------------------------------------|
G|---3-3-3-3-3-3-3-3-3-3-3-3-3-3-3-3--6-6-6-6-6-6-6-6-6-6-6-6-6-6-6-6--------|
D|---3-3-3-3-3-3-3-3-3-3-3-3-3-3-3-3--6-6-6-6-6-6-6-6-6-6-6-6-6-6-6-6--------|
A|---1-1-1-1-1-1-1-1-1-1-1-1-1-1-1-1--4-4-4-4-4-4-4-4-4-4-4-4-4-4-4-4--------|
E|---------------------------------------------------------------------------|


   Gtr 1 + 2
e|---------------------------------------------------------------------------|
B|---------------------------------------------------------------------------|
G|---------------------------------------------------------------------------|
D|---6-6-6-6-6-6-6-6-6-6-6-6-6-6-6-6--4-4-4-4-4-4-4-4-4-4-4-4-4-4-4-4--------|
A|---6-6-6-6-6-6-6-6-6-6-6-6-6-6-6-6--4-4-4-4-4-4-4-4-4-4-4-4-4-4-4-4--------|
E|---4-4-4-4-4-4-4-4-4-4-4-4-4-4-4-4--2-2-2-2-2-2-2-2-2-2-2-2-2-2-2-2--------|


   Gtr 1 + 2
e|---------------------------------------------------------------------------|
B|---------------------------------------------------------------------------|
G|---3-3-3-3-3-3-3-3-3-3-3-3-3-3-3-3--6-6-6-6-6-6-6-6-6-6-6-6-6-6-6-6--------|
D|---3-3-3-3-3-3-3-3-3-3-3-3-3-3-3-3--6-6-6-6-6-6-6-6-6-6-6-6-6-6-6-6--------|
A|---1-1-1-1-1-1-1-1-1-1-1-1-1-1-1-1--4-4-4-4-4-4-4-4-4-4-4-4-4-4-4-4--------|
E|---------------------------------------------------------------------------|


   Gtr 1 + 2
e|---------------------------------------------------------------------------|
B|---------------------------------------------------------------------------|
G|---------------------------------------------------------------------------|
D|---3-3-3-3-3-3-3-3-3-3-3-3-3-3-3-3--3-3-3-3-3-3-3-3-3-3-3-3-3-3-3-3--------|
A|---3-3-3-3-3-3-3-3-3-3-3-3-3-3-3-3--3-3-3-3-3-3-3-3-3-3-3-3-3-3-3-3--------|
E|---1-1-1-1-1-1-1-1-1-1-1-1-1-1-1-1--1-1-1-1-1-1-1-1-1-1-1-1-1-1-1-1--------|



* BRIDGE *



   Gtr 1
e|---------------------------------------------------------------------------|
B|---------------------------------------------------------------------------|
G|---------------------------------------------------------------------------|
e|---------------------------------------------------------------------------|
B|---------------------------------------------------------------------------|
G|---------------------------------------------------------------------------|
 |
 | Gtr 2
e|---------------------------------------------------------------------------|
B|---------------------------------------------------------------------------|
G|---6-6-6-6-6-6-6-6-6-6-6-6-6-6-6-6-----------------------------------------|
D|---6-6-6-6-6-6-6-6-6-6-6-6-6-6-6-6--4-4-4-4-4-4-4-4-4-4-4-4-4-4-4-4--------|
A|---4-4-4-4-4-4-4-4-4-4-4-4-4-4-4-4--4-4-4-4-4-4-4-4-4-4-4-4-4-4-4-4--------|
E|------------------------------------2-2-2-2-2-2-2-2-2-2-2-2-2-2-2-2--------|


   Gtr 1
e|---------------------------------------------------------------------------|
B|---------------------------------------------------------------------------|
G|---------------------------------------------------------------------------|
e|---------------------------------------------------------------------------|
B|---------------------------------------------------------------------------|
G|---------------------------------------------------------------------------|
 |
 | Gtr 2
e|---------------------------------------------------------------------------|
B|---------------------------------------------------------------------------|
G|---4-4-4-4-4-4-4-4-4-4-4-4-4-4-4-4-----------------------------------------|
D|---4-4-4-4-4-4-4-4-4-4-4-4-4-4-4-4--7-7-7-7-7-7-7-7-7-7-7-7-7-7-7-7--------|
A|---2-2-2-2-2-2-2-2-2-2-2-2-2-2-2-2--7-7-7-7-7-7-7-7-7-7-7-7-7-7-7-7--------|
E|------------------------------------5-5-5-5-5-5-5-5-5-5-5-5-5-5-5-5--------|


   Gtr 1
e|---------------------------------------------------------------------------|
B|---------------------------------------------------------------------------|
G|---------------------------------------------------------------------------|
e|------------------------------------------------------4-4-4-5-5-5-5--------|
B|----6---4--2---4--2---4--2----------------------------x-x-x-x-x-x-x--------|
G|-----------------------------4---3--------------------2-2-2-3-3-3-3--------|
 |
 | Gtr 2
e|---------------------------------------------------------------------------|
B|---------------------------------------------------------------------------|
G|---4-4-4-4-4-4-4-4-4-4-4-4-4-----------------------------------------------|
D|---4-4-4-4-4-4-4-4-4-4-4-4-4-6-6-5~~------------------4-4-4-5-5-5-5--------|
A|---2-2-2-2-2-2-2-2-2-2-2-2-2-6-6-5~~------------------4-4-4-5-5-5-5--------|
E|-----------------------------4-4-3~~------------------2-2-2-3-3-3-3--------|



* RIFF A *



   Gtr 1
e|---------------------------------------------------------------------------|
B|---------------------------------------------------------------------------|
G|---------------------------------------------------------------------------|
D|---8-8-8-8-4-4-4-4-6-6-6-6-7-7-7-7--8-8-8-8-4-4-4-4-6-6-6-6-7-7-7-7--------|
A|---x-x-x-x-x-x-x-x-x-x-x-x-x-x-x-x--x-x-x-x-x-x-x-x-x-x-x-x-x-x-x-x--------|
E|---6-6-6-6-2-2-2-2-4-4-4-4-5-5-5-5--6-6-6-6-2-2-2-2-4-4-4-4-5-5-5-5--------|
 |
 | Gtr 2
e|---------------------------------------------------------------------------|
B|---------------------------------------------------------------------------|
G|---------------------------------------------------------------------------|
D|---8-----------------------------------------------------------------------|
A|---8-----------------------------------------------------------------------|
E|---6-----------------------------------------------------------------------|

   Gtr 1
e|---------------------------------------------------------------------------|
B|---------------------------------------------------------------------------|
G|---------------------------------------------------------------------------|
D|---8-8-8-8-4-4-4-4-6-6-6-6-7-7-7-7--8-8-8-8-4-4-4-4-6-6-6-6-7-7-7-7--------|
A|---x-x-x-x-x-x-x-x-x-x-x-x-x-x-x-x--x-x-x-x-x-x-x-x-x-x-x-x-x-x-x-x--------|
E|---6-6-6-6-2-2-2-2-4-4-4-4-5-5-5-5--6-6-6-6-2-2-2-2-4-4-4-4-5-5-5-5--------|
 |
 | Gtr 2
e|---------------------------------------------------------------------------|
B|---------------------------------------------------------------------------|
G|---------------------------------------------------------------------------|
D|---8-8-8-8-4-4-4-4-6-6-6-6-7-7-7-7--8-8-8-8-4-4-4-4-6-6-6-6-7-7-7-7--------|
A|---8-8-8-8-4-4-4-4-6-6-6-6-7-7-7-7--8-8-8-8-4-4-4-4-6-6-6-6-7-7-7-7--------|
E|---6-6-6-6-2-2-2-2-4-4-4-4-5-5-5-5--6-6-6-6-2-2-2-2-4-4-4-4-5-5-5-5--------|

  Gtr 1
e|---------------------------------------------------------------------------|
B|---------------------------------------------------------------------------|
G|=========================  F E E D  B A C K  ==============================|
D|---------------------------------------------------------------------------|
A|---------------------------------------------------------------------------|
E|---------------------------------------------------------------------------|
 |
 | Gtr 2
e|---------------------------------------------------------------------------|
B|---------------------------------------------------------------------------|
G|---------------------------------------------------------------------------|
D|---8-8-8-8-4-4-4-4-6-6-6-6-7-7-7-7--8-8-8-8-4-4-4-4-6-6-6-6-7-7-7-7--------|
A|---8-8-8-8-4-4-4-4-6-6-6-6-7-7-7-7--8-8-8-8-4-4-4-4-6-6-6-6-7-7-7-7--------|
E|---6-6-6-6-2-2-2-2-4-4-4-4-5-5-5-5--6-6-6-6-2-2-2-2-4-4-4-4-5-5-5-5--------|

 

* CHORUS *



   Gtr 1 + 2
e|---------------------------------------------------------------------------|
B|---------------------------------------------------------------------------|
G|---3-3-3-3-3-3-3-3-3-3-3-3-3-3-3-3--6-6-6-6-6-6-6-6-6-6-6-6-6-6-6-6--------|
D|---3-3-3-3-3-3-3-3-3-3-3-3-3-3-3-3--6-6-6-6-6-6-6-6-6-6-6-6-6-6-6-6--------|
A|---1-1-1-1-1-1-1-1-1-1-1-1-1-1-1-1--4-4-4-4-4-4-4-4-4-4-4-4-4-4-4-4--------|
E|---------------------------------------------------------------------------|


   Gtr 1 + 2
e|---------------------------------------------------------------------------|
B|---------------------------------------------------------------------------|
G|---------------------------------------------------------------------------|
D|---6-6-6-6-6-6-6-6-6-6-6-6-6-6-6-6--4-4-4-4-4-4-4-4-4-4-4-4-4-4-4-4--------|
A|---6-6-6-6-6-6-6-6-6-6-6-6-6-6-6-6--4-4-4-4-4-4-4-4-4-4-4-4-4-4-4-4--------|
E|---4-4-4-4-4-4-4-4-4-4-4-4-4-4-4-4--2-2-2-2-2-2-2-2-2-2-2-2-2-2-2-2--------|


   Gtr 1 + 2
e|---------------------------------------------------------------------------|
B|---------------------------------------------------------------------------|
G|---3-3-3-3-3-3-3-3-3-3-3-3-3-3-3-3--6-6-6-6-6-6-6-6-6-6-6-6-6-6-6-6--------|
D|---3-3-3-3-3-3-3-3-3-3-3-3-3-3-3-3--6-6-6-6-6-6-6-6-6-6-6-6-6-6-6-6--------|
A|---1-1-1-1-1-1-1-1-1-1-1-1-1-1-1-1--4-4-4-4-4-4-4-4-4-4-4-4-4-4-4-4--------|
E|---------------------------------------------------------------------------|


   Gtr 1 + 2
e|---------------------------------------------------------------------------|
B|---------------------------------------------------------------------------|
G|---------------------------------------------------------------------------|
D|---3-3-3-3-3-3-3-3-3-3-3-3-3-3-3-3--3-3-3-3-3-3-3-3-3-3-3-3-3-3-3-3--------|
A|---3-3-3-3-3-3-3-3-3-3-3-3-3-3-3-3--3-3-3-3-3-3-3-3-3-3-3-3-3-3-3-3--------|
E|---1-1-1-1-1-1-1-1-1-1-1-1-1-1-1-1--1-1-1-1-1-1-1-1-1-1-1-1-1-1-1-1--------|


 repeat chorus   


   Gtr 1 + 2
e|---------------------------------------------------------------------------|
B|---------------------------------------------------------------------------|
G|---3-3-3-3-3-3-3-3-3-3-3-3-3-3-3-3--6-6-6-6-6-6-6-6-6-6-6-6-6-6-6-6--------|
D|---3-3-3-3-3-3-3-3-3-3-3-3-3-3-3-3--6-6-6-6-6-6-6-6-6-6-6-6-6-6-6-6--------|
A|---1-1-1-1-1-1-1-1-1-1-1-1-1-1-1-1--4-4-4-4-4-4-4-4-4-4-4-4-4-4-4-4--------|
E|---------------------------------------------------------------------------|


   Gtr 1 + 2
e|---------------------------------------------------------------------------|
B|---------------------------------------------------------------------------|
G|---------------------------------------------------------------------------|
D|---6-6-6-6-6-6-6-6-6-6-6-6-6-6-6-6--4-4-x-4-4-x-4-4-x-4-4-x-4-4-4-4--------|
A|---6-6-6-6-6-6-6-6-6-6-6-6-6-6-6-6--4-4-x-4-4-x-4-4-x-4-4-x-4-4-4-4--------|
E|---4-4-4-4-4-4-4-4-4-4-4-4-4-4-4-4--2-2-x-2-2-x-2-2-x-2-2-x-2-2-2-2--------|


   Gtr 1 + 2
e|---------------------------------------------------------------------------|
B|---------------------------------------------------------------------------|
G|---3-3-3-3-3-3-3-3-3-3-3-3-3-3-3-3--6-6-6-6-6-6-6-6-6-6-6-6-6-6-6-6--------|
D|---3-3-3-3-3-3-3-3-3-3-3-3-3-3-3-3--6-6-6-6-6-6-6-6-6-6-6-6-6-6-6-6--------|
A|---1-1-1-1-1-1-1-1-1-1-1-1-1-1-1-1--4-4-4-4-4-4-4-4-4-4-4-4-4-4-4-4--------|
E|---------------------------------------------------------------------------|


   Gtr 1 + 2
e|---------------------------------------------------------------------------|
B|---------------------------------------------------------------------------|
G|---------------------------------------------------------------------------|
D|---3-3-3-3-3-3-3-3-3-3-3-3-3-3-3-3--3-3-3-3-3-3-3-3-3-3-3-3-3-3-3-3--------|
A|---3-3-3-3-3-3-3-3-3-3-3-3-3-3-3-3--3-3-3-3-3-3-3-3-3-3-3-3-3-3-3-3--------|
E|---1-1-1-1-1-1-1-1-1-1-1-1-1-1-1-1--1-1-1-1-1-1-1-1-1-1-1-1-1-1-1-1--------|


   Gtr 1 + 2
e|---------------------------------------------------------------------------|
B|---------------------------------------------------------------------------|
G|---------------------------------------------------------------------------|
D|--/8~----------------------------------------------------------------------|
A|--/8~----------------------------------------------------------------------|
E|--/6~----------------------------------------------------------------------|
        ring out


 * LYRICS *


Don't be that way,'cause I might be on that next train, if I get around to it.

Well Oh no, oh no. I'm so fucking undependable, but you have to admit its part of my charm.

Or at least I thought it was, oh forget I said it.


I'm ready for, the next train wreck, a new disaster, 'cause I'm getting cold.

I'm falling down, and playing dead. 


Don't play that game, 'cause I can't be held responsible, for any sort of injuries, I don't wanna hear it.

Well she said, she said, you're so fucking irresistable, as she lowers her head into her hands.

I guess it happened again.


I'm ready for, the next train wreck, a new disaster, 'cause I'm getting cold.

I'm falling down, and playing dead.


I'm ready for, the next train wreck, a new disaster, 'cause I'm getting cold.

I'm falling down, and playing dead.


A hurricane, a tornado, a forest fire, a falling piano.

From out the window, where ever she goes, pure disaster surely follows.

===============================================================================

              All music and lyrics tabbed by angelsairwaves
              
Feel free to use this parts of this tab in your own, as long as you mention me.

===============================================================================
Tap to rate this tab
# A B C D E F G H I J K L M N O P Q R S T U V W X Y Z