Song name
# A B C D E F G H I J K L M N O P Q R S T U V W X Y Z

I Am X - Spit It Out Acoustic tab

Help us improve GuitareTab! Take a short survey!
Chris Corner
Spit It Out
(Acoustic)
Tuned 1/2 a step up from E

Intro is just strumming heavily muted strings

Verse (palm mute, play like in the video)
|---------------|
|---------------|
|---------------|
|-7-10-x-10-9---|
|-7-10-x-10-7---|
|-5-8--x-8--0---|

Interlude 
|----------------------------------------------|
|----------------------------------------------|
|----------------------------------------------|
|---10---9----2-3---5-2------10---9---2-3--7-2-|
|-0----0---00--0-000-0-0---0----0---00-0-00-0--|
|----------------------------------------------|
               (V thanks to the other tabber for this chord. It was really annoying)
|-------------------------|
|-------------------------|
|-------------------------|
|--5-3-----3-3--2--0----2-|
|------3--------3----3--2-|
|-1---1---1-------------0-|

Chorus
|---------------------------------|
|---------------------------------|
|---------------------------------|
|-7------5--33-----10-----999999--|
|-7------5--33-----10-----777777--|
|-55555--33-11111--8-8888-000000--|
Related for Spit It Out Acoustic tab