Song name
# A B C D E F G H I J K L M N O P Q R S T U V W X Y Z

I Can Make A Mess Like Nobodys Business - The Best Happiness Money Can Buy tab

Tabbed by: Tim
Email: imnotspecial327@hotmail.com

Tuning: down a half-step

Intro/Verse

eb|---------------------------------------------------------------------------|
Bb|---------------------------------------------------------------------------|
Gb|-----0-----0-----0-0---0---------------------------------------------------|
Db|---0-----0-----0-----0-----------------------------------------------------|
Ab|-3-----2-----0-------------------------------------------------------------|
Eb|---------------------------------------------------------------------------|

Chorus

eb|-3--3--3--3----------------------------------------------------------------|
Bb|-3--3--3--3----------------------------------------------------------------|
Gb|-0--0--0--2----------------------------------------------------------------|
Db|-0--2--2--0----------------------------------------------------------------|
Ab|-2--2--3-------------------------------------------------------------------|
Eb|-3--0----------------------------------------------------------------------|

Intro(x4)
Verse(x6)
Chorus(x2)
Verse(x6)
Chorus(x2)
Verse(x10)


| /  slide up
| \  slide down
| h  hammer-on
| p  pull-off
| ~  vibrato
| +  harmonic
| x  Mute note
===============================================================================
Tap to rate this tab
# A B C D E F G H I J K L M N O P Q R S T U V W X Y Z