Guitaretab - guitar tabs
Song name
# A B C D E F G H I J K L M N O P Q R S T U V W X Y Z

I Declare War - Fuck Your Claim tab

                                 FUCK YOUR CLAIM
                          As recorded by I Declare War
                   (From the 2007 Album AMIDST THE BLOODSHED)

Words and Music by I Declare War
Arranged by I Declare War
Transcribed by Evan Hughes

Gtr I (A# F A# D# G C) - 'Jake Paulson'
Gtr II (A# F A# D# G C) - 'Evan Hughes'

    Q=175
   4/4
    Gtrs I, II
    PM-----------------|
||------------------------|----------|--------|
||o-----------------------|----------|--------|
||------------------------|----------|--------|
||------------------------|----------|--------|
||o-0-0-0-0-0--0-0-0-0-0--|-0--------|-(0)----|
||--0-0-0-0-0--0-0-0-0-0--|-0--------|-(0)----|


  PM-----------------|
|-----------------------|----------|---------||
|-----------------------|----------|--------o||
|-----------------------|----------|---------||
|-----------------------|----------|---------||
|-1-1-1-1-1--1-1-1-1-1--|-1--------|-(1)----o||
|-1-1-1-1-1--1-1-1-1-1--|-1--------|-(1)-----||


    PM-----------------|    PM----------------------------|
||------------------------|---------------------------------|
||o-----------------------|---------------------------------|
||------------------------|---------------------------------|
||------------------------|---------------------------------|
||o-0-0-0-0-0--0-0-0-0-0--|---------------------------------|
||--0-0-0-0-0--0-0-0-0-0--|-5-3-0-0-7-5-0-0-5-3-0-0-3-1-0-0-|


  Gtr I
  PM-----------------|        PM|     PM ~~~
                                             4x
|-----------------------|--------------------||
|-----------------------|-------------------o||
|-----------------------|--------------------||
|-----------------------|-3-2----------------||
|-1-1-1-1-1--1-1-1-1-1--|---------[3]-------o||
|-1-1-1-1-1--1-1-1-1-1--|-----0-0-----0-[3]--||
|
| Gtr II
| PM-----------------|        PM|     PM ~~~
|                                            4x
|-----------------------|--------------------||
|-----------------------|-------------------o||
|-----------------------|--------------------||
|-----------------------|-7-5----------------||
|-1-1-1-1-1--1-1-1-1-1--|---------[7]-------o||
|-1-1-1-1-1--1-1-1-1-1--|-----0-0-----0-[7]--||


  Gtrs I, II
|----------|------------|------------|--------|
|----------|------------|------------|--------|
|----------|------------|------------|--------|
|----------|------------|------------|--------|
|-0--------|-(0)--------|-(0)--------|-(0)----|
|-0--------|-(0)--------|-(0)--------|-(0)----|


  Gtr I
|-----------------------|---------------------------|------------------------|
|-----------------------|---------------------------|------------------------|
|-----------------------|---------------------------|------------------------|
|-----------------------|---------------------------|------------------------|
|-(0)-------------------|-(0)-----------------------|-(0)--------------------|
|-(0)-------------------|-(0)-----------------------|-(0)--------------------|
|
| Gtr II
|  PM-----------------|                                PM-----------------|
|-----------------------|---------------------------|------------------------|
|-----------------------|---------------------------|------------------------|
|-----------------------|---------------------------|------------------------|
|-----------------------|--8p7p0-10p8p0-8p7p0-7p5p0-|------------------------|
|-----------------------|---------------------------|------------------------|
|--0--0-0-0-0-0-0-0-0-0-|---------------------------|--0--0-0-0-0-0-0-0-0-0--|


|--------------------|---------------------|---------------------------|
|--------------------|---------------------|---------------------------|
|--------------------|---------------------|---------------------------|
|--------------------|---------------------|---------------------------|
|-(0)----------------|-0-------------------|---------------------------|
|-(0)----------------|-0-------------------|---------------------------|
|
|                      PM----------------|
|--------------------|---------------------|---------------------------|
|--------------------|---------------------|---------------------------|
|--------------------|---------------------|---------------------------|
|--------------------|---------------------|-8p7p0-10p8p0-8p7p0-7p5p0--|
|--5----7---8----7---|---------------------|---------------------------|
|-----7---8---10---8-|-0-0-0-0-0-0-0-0-0-0-|---------------------------|


  Gtrs I, II
  TP   TP TP   TP   TP TP
|------------|------------|
|------------|------------|
|------------|------------|
|------------|------------|
|------------|------------|
|-1----1--4--|-5----7--8--|


    PM----------------|                              PM----------------|
||----------------------|--------------------------|---------------------|
||o---------------------|--------------------------|---------------------|
||----------------------|--------------------------|---------------------|
||----------------------|-8p7p0-10p8p0-8p7p0-7p5p0-|---------------------|
||o---------------------|--------------------------|---------------------|
||--0-0-0-0-0-0-0-0-0-0-|--------------------------|-0-0-0-0-0-0-0-0-0-0-|


                     PM----------------|
|------------------|---------------------|---------------------------|
|------------------|---------------------|---------------------------|
|------------------|---------------------|---------------------------|
|------------------|---------------------|-8p7p0-10p8p0-8p7p0-7p5p0--|
|-5---7---8----7---|---------------------|---------------------------|
|---7---8---10---8-|-0-0-0-0-0-0-0-0-0-0-|---------------------------|


  TP   TP TP   TP   TP TP
|------------|-------------||
|------------|------------o||
|------------|-------------||
|------------|-------------||
|------------|------------o||
|-1----1--4--|-5----7--8---||


    Gtr I
    PM----------------|                              PM----------------|
||----------------------|--------------------------|---------------------|
||o---------------------|--------------------------|---------------------|
||----------------------|--------------------------|---------------------|
||----------------------|-8p7p0-10p8p0-8p7p0-7p5p0-|---------------------|
||o---------------------|--------------------------|---------------------|
||--0-0-0-0-0-0-0-0-0-0-|--------------------------|-0-0-0-0-0-0-0-0-0-0-|
|
|   Gtr II
|   PM----------------|                              PM----------------|
||----------------------|--------------------------|---------------------|
||o---------------------|--------------------------|---------------------|
||----------------------|--------------------------|---------------------|
||----------------------|-5p3p0--7p5p0-5p3p0-3p2p0-|---------------------|
||o---------------------|--------------------------|---------------------|
||--0-0-0-0-0-0-0-0-0-0-|--------------------------|-0-0-0-0-0-0-0-0-0-0-|


                     PM----------------|
|------------------|---------------------|---------------------------|
|------------------|---------------------|---------------------------|
|------------------|---------------------|---------------------------|
|------------------|---------------------|-8p7p0-10p8p0-8p7p0-7p5p0--|
|-5---7---8----7---|---------------------|---------------------------|
|---7---8---10---8-|-0-0-0-0-0-0-0-0-0-0-|---------------------------|
|
|                    PM----------------|
|------------------|---------------------|---------------------------|
|------------------|---------------------|---------------------------|
|------------------|---------------------|---------------------------|
|------------------|---------------------|-5p3p0--7p5p0-5p3p0-3p2p0--|
|-5---7---8----7---|---------------------|---------------------------|
|---7---8---10---8-|-0-0-0-0-0-0-0-0-0-0-|---------------------------|


  TP   TP TP   TP   TP TP
|------------|-------------||
|------------|------------o||
|------------|-------------||
|------------|-------------||
|------------|------------o||
|-1----1--4--|-5----7--8---||
|
| TP   TP TP   TP   TP TP
|------------|-------------||
|------------|------------o||
|------------|-------------||
|------------|-------------||
|------------|------4--5--o||
|-1----1--4--|-5-----------||


  Gtr I
  PM----------------------------------------------|
|---------------------|---------|---------------------|------------|
|---------------------|---------|---------------------|------------|
|---------------------|---------|---------------------|------------|
|---------------------|---------|---------------------|------------|
|-------0-0-------0-0-|---------|-0-0-0-----0-0-0-----|-----12\----|
|-------0-0-------0-0-|---------|-0-0-0-----0-0-0-----|-----12\----|
|
| Gtr II
| PM----------------------------------------------------|
|---------------------|---------|---------------------|------------|
|---------------------|---------|---------------------|------------|
|---------------------|---------|---------------------|------------|
|---------------------|---------|---------------------|------------|
|-0-0-0-----0-0-0-----|---------|-------0-0-------0-0-|-----12\----|
|-0-0-0-----0-0-0-----|---------|-------0-0-------0-0-|-----12\----|


    Gtrs I, II
    PM---------------------------------------------
||----------------------|-------------------------|
||o---------------------|-------------------------|
||----------------------|-------------------------|
||----------------------|-------------------------|
||o-0-0-0-0-0-0-0-0-0-0-|-0-0-0-0-0-0-0-0-0-0-0-0-|
||--0-0-0-0-0-0-0-0-0-0-|-0-0-0-0-0-0-0-0-0-0-0-0-|


 -------------------|
|---------------------|-------------------||
|---------------------|------------------o||
|---------------------|-------------------||
|---------------------|-------------------||
|-0-0-0-0-0-0-0-0-0-0-|-5---7---8----7---o||
|-0-0-0-0-0-0-0-0-0-0-|---7---8---10---8--||


    Gtr I
    PM---------------------------------------------
||----------------------|-------------------------|
||o---------------------|-------------------------|
||----------------------|-------------------------|
||----------------------|-------------------------|
||o-0-0-0-0-0-0-0-0-0-0-|-0-0-0-0-0-0-0-0-0-0-0-0-|
||--0-0-0-0-0-0-0-0-0-0-|-0-0-0-0-0-0-0-0-0-0-0-0-|
|
|   Gtr II
|   PM---------------------------------------------
||----------------------|-------------------------|
||o---------------------|-------------------------|
||----------------------|-------------------------|
||----------------------|-------------------------|
||o-0-0-0-0-0-0-0-0-0-0-|-0-0-0-0-0-0-0-0-0-0-0-0-|
||--0-0-0-0-0-0-0-0-0-0-|-0-0-0-0-0-0-0-0-0-0-0-0-|


 -------------------|
|---------------------|-------------------------||
|---------------------|------------------------o||
|---------------------|-------------------------||
|---------------------|-------------------------||
|-0-0-0-0-0-0-0-0-0-0-|-8----10----12----10----o||
|-0-0-0-0-0-0-0-0-0-0-|---10----12----14----12--||
|
|-------------------|
|---------------------|-------------------------||
|---------------------|------------------------o||
|---------------------|-------------------------||
|---------------------|-------------------------||
|-0-0-0-0-0-0-0-0-0-0-|-5-----7-----8-----7----o||
|-0-0-0-0-0-0-0-0-0-0-|----7-----8----10-----8--||

[ Tab from: http://www.guitaretab.com/i/i-declare-war/107616.html ]
    Q=140
    Gtrs I, II
    PM----------------------------------------
||-----------------|-------------------------|
||o----------------|-------------------------|
||-----------------|-------------------------|
||-----------------|-------------------------|
||o-0-0-0----0-0-0-|-0-0-0-0-0-0-0-0-0-0-0-0-|
||--0-0-0----0-0-0-|-0-0-0-0-0-0-0-0-0-0-0-0-|


 --------------|
|----------------|---------------------||
|----------------|--------------------o||
|----------------|---------------------||
|----------------|---------------------||
|-0-0-0----0-0-0-|-5---7---8----7-----o||
|-0-0-0----0-0-0-|---7---8---10---8----||


    Gtr I
    PM----------------------------------------------
||-----------------------|-------------------------|
||o----------------------|-------------------------|
||-----------------------|-------------------------|
||-----------------------|-------------------------|
||o-0-0-0-(0)--(0)-0-0-0-|-0-0-0-0-0-0-0-0-0-0-0-0-|
||--0-0-0-(0)--(0)-0-0-0-|-0-0-0-0-0-0-0-0-0-0-0-0-|
|
|   Gtr II
|   PM----------------------------------------------
||-----------------------|-------------------------|
||o----------------------|-------------------------|
||-----------------------|-------------------------|
||-----------------------|-------------------------|
||o-0-0-0-(0)--(0)-0-0-0-|-0-0-0-0-0-0-0-0-0-0-0-0-|
||--0-0-0-(0)--(0)-0-0-0-|-0-0-0-0-0-0-0-0-0-0-0-0-|


 --------------------|
|----------------------|---------------------------||
|----------------------|--------------------------o||
|----------------------|---------------------------||
|----------------------|---------------------------||
|-0-0-0-(0)--(0)-0-0-0-|-8----10----12----10------o||
|-0-0-0-(0)--(0)-0-0-0-|---10----12----14----12----||
|
|--------------------|
|----------------------|---------------------------||
|----------------------|--------------------------o||
|----------------------|---------------------------||
|----------------------|---------------------------||
|-0-0-0-(0)--(0)-0-0-0-|-5-----7-----8-----7------o||
|-0-0-0-(0)--(0)-0-0-0-|----7-----8----10-----8----||


  Q=180
|-----------|--------------------------|----------|------------------------|
|-----------|--------------------------|----------|------------------------|
|-10--------|-(10)---------------------|-9--------|-(9)--------------------|
|-10--------|-(10)---------------------|-9--------|-(9)--------------------|
|--8--------|--(8)---------------------|-7--------|-(7)--------------------|
|--8--------|--(8)---------------------|-7--------|-(7)--------------------|
|
|                                                                    ~~~~~
|-----------|--------------------------|----------|------------------------|
|-----------|------------8-(8)---------|----------|------------------------|
|-10--------|---------10-------10------|-9--------|--9--10-9-7-[9]-([9])---|
|-10--------|------10-------------10---|-9--------|------------------------|
|--8--------|---8--------------------8-|-7--------|------------------------|
|--8--------|--------------------------|-7--------|------------------------|


    Gtrs I, II
                            PM    PM
||-------------------|------------------|
||o------------------|------------------|
||-------------------|------------------|
||-------------------|------------------|
||o-5---7---8----7---|-10p8---8p7---7p5-|
||----7---8---10---8-|------0-----0-----|


|------------------|-------------------||
|------------------|------------------o||
|------------------|-------------------||
|------------------|-------------------||
|-5---7---8----7---|-5-5-5-5-7-7-7-7--o||
|---7---8---10---8-|-8-8-8-8-8-8-8-8---||


    Gtr I
                            PM    PM
||-------------------|------------------|
||o------------------|------------------|
||-------------------|------------------|
||-------------------|------------------|
||o-5---7---8----7---|-10p8---8p7---7p5-|
||----7---8---10---8-|------0-----0-----|
|
|   Gtr II
|                           PM    PM
||-------------------|------------------|
||o------------------|------------------|
||-------------------|------------------|
||-------------------|--8p7---7p5---5p3-|
||o-5---7---8----7---|------------------|
||----7---8---10---8-|------0-----0-----|


|------------------|-------------------||
|------------------|------------------o||
|------------------|-------------------||
|------------------|-------------------||
|-5---7---8----7---|-5-5-5-5-7-7-7-7--o||
|---7---8---10---8-|-8-8-8-8-8-8-8-8---||
|
|------------------|-------------------||
|------------------|------------------o||
|------------------|-------------------||
|------------------|-------------------||
|-5---7---8----7---|-5-5-5-5-7-7-7-7--o||
|---7---8---10---8-|-8-8-8-8-8-8-8-8---||


    Gtrs I, II
    PM----------------------------------------------------|
||----------------------|-------------|---------------------|------------------|
||o---------------------|-------------|---------------------|------------------|
||----------------------|-------------|---------------------|------------------|
||----------------------|-------------|---------------------|------------------|
||o-0-0-0-0-0-0-0-0-0-0-|--0-0---0-0--|-0-0-0-0-0-0-0-0-0-0-|-5-5-5-5-7-7-7-7--|
||--0-0-0-0-0-0-0-0-0-0-|--0-0---0-0--|-0-0-0-0-0-0-0-0-0-0-|-8-8-8-8-8-8-8-8--|


  Gtr I
  PM---------------------------------
|---------------------|-------------|
|---------------------|-------------|
|---------------------|-------------|
|---------------------|-------------|
|-0-0-0-0-0-0-0-0-0-0-|--0-0---0-0--|
|-0-0-0-0-0-0-0-0-0-0-|--0-0---0-0--|
|
| Gtr II
| PM---------------------------------
|---------------------|-------------|
|---------------------|-------------|
|---------------------|-------------|
|---------------------|-------------|
|-0-0-0-0-0-0-0-0-0-0-|--0-0---0-0--|
|-0-0-0-0-0-0-0-0-0-0-|--0-0---0-0--|


 -------------------|
|---------------------|--------------------------------||
|---------------------|-------------------------------o||
|---------------------|--------------------------------||
|---------------------|--------------------------------||
|-0-0-0-0-0-0-0-0-0-0-|-10h12p10-8h10p8-7h8p7-5h7p5p0-o||
|-0-0-0-0-0-0-0-0-0-0-|--------------------------------||
|
|-------------------|
|---------------------|--------------------------------||
|---------------------|-------------------------------o||
|---------------------|--------------------------------||
|---------------------|--------------------------------||
|-0-0-0-0-0-0-0-0-0-0-|--7h=8p=7-5h=7p5-3h5p3-1h3p1p0-o||
|-0-0-0-0-0-0-0-0-0-0-|--------------------------------||


  Q=140
  Gtrs I, II
  PM--------------------------------
|---------------------|------------|
|---------------------|------------|
|---------------------|------------|
|---------------------|------------|
|-0-0-0-0-0-0-0-0-0-0-|-(0)--------|
|-0-0-0-0-0-0-0-0-0-0-|-(0)--------|


 -----------------------------------------------------|
|---------------------|---------------------------------|
|---------------------|---------------------------------|
|---------------------|---------------------------------|
|---------------------|---------------------------------|
|-0-0-0-0-0-0-0-0-0-0-|---------------------------------|
|-0-0-0-0-0-0-0-0-0-0-|-5-3-0-0-7-5-0-0-5-3-0-0-3-1-0-0-|


  PM---------------------------------------------------|
|---------------------|------------|---------------------|-----------------|
|---------------------|------------|---------------------|-----------------|
|---------------------|------------|---------------------|-----------------|
|---------------------|------------|---------------------|-----------------|
|-0-0-0-0-0-0-0-0-0-0-|-(0)--------|-0-0-0-0-0-0-0-0-0-0-|-4-4-4-4-5-5-5-5-|
|-0-0-0-0-0-0-0-0-0-0-|-(0)--------|-0-0-0-0-0-0-0-0-0-0-|-7-7-7-7-7-7-7-7-|


  Gtr I
  PM---------------------------------------
|---------------------|-------------------|
|---------------------|-------------------|
|---------------------|-------------------|
|---------------------|-------------------|
|-0-0-0-0-0-0-0-0-0-0-|--0--0-0-0-0-0-0-0-|
|-0-0-0-0-0-0-0-0-0-0-|--0--0-0-0-0-0-0-0-|
|
| Gtr II
| PM---------------------------------------
|---------------------|-------------------|
|---------------------|-------------------|
|---------------------|-------------------|
|---------------------|-------------------|
|-0-0-0-0-0-0-0-0-0-0-|-(0)---------------|
|-0-0-0-0-0-0-0-0-0-0-|-(0)---------------|


 -----------------------------------------------------|
|---------------------|---------------------------------|
|---------------------|---------------------------------|
|---------------------|---------------------------------|
|---------------------|---------------------------------|
|-0-0-0-0-0-0-0-0-0-0-|---------------------------------|
|-0-0-0-0-0-0-0-0-0-0-|-5-3-0-0-7-5-0-0-5-3-0-0-3-1-0-0-|
|
|-----------------------------------------------------|
|---------------------|---------------------------------|
|---------------------|---------------------------------|
|---------------------|---------------------------------|
|---------------------|---------------------------------|
|-0-0-0-0-0-0-0-0-0-0-|---------------------------------|
|-0-0-0-0-0-0-0-0-0-0-|-5-3-0-0-7-5-0-0-5-3-0-0-3-1-0-0-|


  PM---------------------------------------
|---------------------|-------------------|
|---------------------|-------------------|
|---------------------|-------------------|
|---------------------|-------------------|
|-0-0-0-0-0-0-0-0-0-0-|--0--0-0-0-0-0-0-0-|
|-0-0-0-0-0-0-0-0-0-0-|--0--0-0-0-0-0-0-0-|
|
| PM---------------------------------------
|---------------------|-------------------|
|---------------------|-------------------|
|---------------------|-------------------|
|---------------------|-------------------|
|-0-0-0-0-0-0-0-0-0-0-|-(0)---------------|
|-0-0-0-0-0-0-0-0-0-0-|-(0)---------------|


 -------------------|
|---------------------|-----------------|
|---------------------|-----------------|
|---------------------|-----------------|
|---------------------|-----------------|
|-0-0-0-0-0-0-0-0-0-0-|-4-4-4-4-5-5-5-5-|
|-0-0-0-0-0-0-0-0-0-0-|-7-7-7-7-7-7-7-7-|
|
|-------------------|
|---------------------|-----------------|
|---------------------|-----------------|
|---------------------|-----------------|
|---------------------|-----------------|
|-0-0-0-0-0-0-0-0-0-0-|-4-4-4-4-5-5-5-5-|
|-0-0-0-0-0-0-0-0-0-0-|-7-7-7-7-7-7-7-7-|


  Gtrs I, II
|----------|------------|------------|--------*|
|----------|------------|------------|--------*|
|----------|------------|------------|--------*|
|----------|------------|------------|--------*|
|-0--------|-(0)--------|-(0)--------|-(0)----*|
|-0--------|-(0)--------|-(0)--------|-(0)----*|


Tablature Legend
----------------
 h   - hammer-on
 p   - pull-off
 b   - bend
 pb  - pre-bend
 r   - bend release (if no number after the r, then release immediately)
 /\  - slide into or out of (from/to "nowhere")
 s   - legato slide
 S   - shift slide
  - natural harmonic
[n]  - artificial harmonic
n(n) - tapped harmonic
 ~   - vibrato
 tr  - trill
 T   - tap
 TP  - trem. picking
 PM  - palm muting
\n/  - tremolo bar dip; n = amount to dip
 \n  - tremolo bar down
 n/  - tremolo bar up
/n\  - tremolo bar inverted dip
 =   - hold bend; also acts as connecting device for hammers/pulls
 <>  - volume swell (louder/softer)
 x   - on rhythm slash represents muted slash
 o   - on rhythm slash represents single note slash

Misc Legend
-----------
 |  - bar
||  - double bar
||o - repeat start
o|| - repeat end
*|  - double bar (ending)
 :  - bar (freetime)
 $  - Segno
 &  - Coda
Tempo markers -  = BPM(8/16=s8/s16), where s8 = swing 8ths, s16 = swing 16ths


***************************************************************************************
* Generated using Power Tab Editor by Brad Larsen - http://powertab.guitarnetwork.org *
***************************************************************************************
Related for Fuck Your Claim tab
Fuck Your Claim chords by I Declare War