Song name
# A B C D E F G H I J K L M N O P Q R S T U V W X Y Z

I Hate Myself - This Isnt The Tencha Ichi Budokai tab

I Hate Myself - This Isn't the Tencha-Ichi-Budokai

E||----------------------|-----------------------|----------------------|
B||----------------------|-----------------------|----------------------|
G||----------------------|-----------------------|----------------------|
D||-------2--4-----------|-------2--4----2--0----|-------2--4-----------|
A||----------------------|-----------------------|----------------------|
D||--5-------------------|--5--------------------|--5-------------------|


-------------------------|------------------------|-----------------------|
-------------------------|------------------------|-----------------------|
-------------------------|------------------------|-----------------------|
-------2--4----2---5*----|-------2--4b----4----2--|-------2--4----2--0----|
-------------------------|------------------------|-----------------------|
--5----------------------|--5---------------------|--5--------------------|


--------------------------|----------------------|
--------------------------|----------------------|
--------------------------|----------------------|
-------2--4b--------------|-------4--2-----------|
----------------------5*--|----------------------|
--5-----------------------|--5-------------------|

then this 4x

-----------------------------|
-----------------------------|
--4-----2-----2h-4p-2--4-----|
-----2-----2--------------2--|
-----------------------------|
-----------------------------|

Distortion kicks in both parts are played directly after eachother and together they're played 4x:

|----------------------------------------|
|----------------------------------------|
|-------9--11-11-11-11-11-11-11-11-11-11-|
|--5----x---x--x--x--x--x--x--x--x--x--x-|
|--5----7---9--9--9--9--9--9--9--9--9--9-|
|--5----0---0--0--0--0--0--0--0--0--0--0-|


----------------------------------|
----------------------------------|
-------9--11-11-11-11-9-9-7-7-7-7-|
--5----x---x--x--x--x-x-x-x-x-x-x-|
--5----7---9--9--9--9-7-7-5-5-5-5-|
--5----0---0--0--0--0-0-0-0-0-0-0-|

Then a clean part again 4x:

-----------------------------|
-----------------------------|
--4-----2-----2h-4p-2--4-----|
-----2-----2--------------2--|
-----------------------------|
-----------------------------|

Distortion again 4 x:

|----------------------------------------|
|----------------------------------------|
|-------9--11-11-11-11-11-11-11-11-11-11-|
|--5----x---x--x--x--x--x--x--x--x--x--x-|
|--5----7---9--9--9--9--9--9--9--9--9--9-|
|--5----0---0--0--0--0--0--0--0--0--0--0-|


----------------------------------|
----------------------------------|
-------9--11-11-11-11-9-9-7-7-7-7-|
--5----x---x--x--x--x-x-x-x-x-x-x-|
--5----7---9--9--9--9-7-7-5-5-5-5-|
--5----0---0--0--0--0-0-0-0-0-0-0-|

Different distortion both parts play directly after eachother, 4x total:


------------------------------------------------|
------------------------------------------------|
--11-11-11-11-11-11-14-14-14-14-14-14-14-14-11--|
------------------------------------------------|
---9--9--9--9--9--9-12-12-12-12-12-12-12-12--9--|
---0--0--0--0--0--0--0--0--0--0--0--0--0--0--0--|

------------------------------------------|
------------------------------------------|
--12--14--12--11--11-11-11-11-11-11-11-11-|
------------------------------------------|
--10--12--10---9---9--9--9--9--9--9--9--9-|
---0---0---0---0---0--0--0--0--0--0--0--0-|

Then the other distortion again 4x:

|----------------------------------------|
|----------------------------------------|
|-------9--11-11-11-11-11-11-11-11-11-11-|
|--5----x---x--x--x--x--x--x--x--x--x--x-|
|--5----7---9--9--9--9--9--9--9--9--9--9-|
|--5----0---0--0--0--0--0--0--0--0--0--0-|


----------------------------------|
----------------------------------|
-------9--11-11-11-11-9-9-7-7-7-7-|
--5----x---x--x--x--x-x-x-x-x-x-x-|
--5----7---9--9--9--9-7-7-5-5-5-5-|
--5----0---0--0--0--0-0-0-0-0-0-0-|

Last clean part 2x:

----------------------|-------------------3----|--2------2------0----|---------------------|
-----------------3----|--5--3--0--3----3-------|---------------------|--3------------------|
--2------2----2-------|------------------------|---------------------|---------------------|
----------------------|------------------------|---------------------|---------------------|
----------------------|------------------------|---------------------|---------------------|
----------------------|------------------------|---------------------|---------------------|

Last time the 2nd distortion part,played 6 times I think (both parts directly after eachother):

------------------------------------------------|
------------------------------------------------|
--11-11-11-11-11-11-14-14-14-14-14-14-14-14-11--|
------------------------------------------------|
---9--9--9--9--9--9-12-12-12-12-12-12-12-12--9--|
---0--0--0--0--0--0--0--0--0--0--0--0--0--0--0--|

------------------------------------------|
------------------------------------------|
--12--14--12--11--11-11-11-11-11-11-11-11-|
------------------------------------------|
--10--12--10---9---9--9--9--9--9--9--9--9-|
---0---0---0---0---0--0--0--0--0--0--0--0-|


Enjoy playing and Message me if you want the guitar pro file thanks.
Tap to rate this tab
# A B C D E F G H I J K L M N O P Q R S T U V W X Y Z