Guitaretab - guitar tabs
Song name
# A B C D E F G H I J K L M N O P Q R S T U V W X Y Z

I Hate Myself - To A Husband At War tab

I Hate Myself - To A Husband At War
Credit: Billybusa (me)
Tuning: Standard

Guitar 1: Clean

E||------------------------|------------------------|----------------------|
B||------------------------|------------------------|----------------------|
G||------------------------|------------------------|----------------------|
D||-------------2--5--2----|--3----2----------------|-----2--5--2-------3--|
A||--3-------3-------------|----------3-----2-------|--2-------------------|
E||------------------------|------------------------|----------------------|

------------------------|-----------------------|--------------------------|
------------------------|-----------------------|--------------------------|
------------------------|-----------------------|--------------------------|
--2---------------0--2--|--0----3----2----------|----------2-------3-------|
-----3----0----0--------|---------------2----0--|-------0-------0-------0--|
------------------------|-----------------------|--------------------------|

------------------|
------------------|
------------------|
--5-------7-------|
-------0----------|
------------------|

Now for Guitar 2: Clean
----------------------|-------------------------|
-------5----6----5----|---------------5h6----3--|
--5-------------------|--4----4----4------------|
----------------------|-------------------------|
----------------------|-------------------------|
----------------------|-------------------------|

----------------------|----------------------|--------------------------|
-------6--------------|--5---------5---------|--------------------------|
--4---------2----5----|--5----5---------5----|-------4----4--4h5--------|
----------------------|----------------------|--5-----------------5-----|
----------------------|----------------------|--------------------------|
----------------------|----------------------|--------------------------|
[ Tab from: http://www.guitaretab.com/i/i-hate-myself/177420.html ]
-----------------------|--------------------------------|
-----------------------|--------------------------------|
--4h-5---------------9-|------9--9h10--9--9-------------|
--------5----5/10------|---------------------10/9-------|
-----------------------|--------------------------------|
-----------------------|--------------------------------|

----------------------------------|--------------------------|
----------------------------------|--------------------------|
----9------9----10----------------|-------5-------5h7--7-----|
-------10--------------10---------|--7---------7-------------|
----------------------------------|--------------------------|
----------------------------------|--------------------------|

--------------------------|-------------------------------|
--------------------------|-------------------------------|
--7----------4----4--4h5--|---------4h5-------------------|
-----7--5-----------------|----5----------5/10----10------|
--------------------------|-------------------------------|
--------------------------|-------------------------------|

Then play this for a long time:
------------------------|-------------------------||
------------------------|-------------------------||
--5----5----12----12----|-----5--5-5--5-4----4----||
--3----3----10----10----|--0--3--3-3--3-2----2----||
------------------------|-------------------------||
------------------------|-------------------------||


Distortion Guitar plays this for a while: 
-----------------------------------------------------|
-----------------------------------------------------|
--9-9-9-9--9-9-9-9--12--7--5-5-5-5--5-5-5-5--5-5-5-5-|
--x-x-x-x--x-x-x-x---x--x--x-x-x-x--x-x-x-x--x-x-x-x-|
--7-7-7-7--7-7-7-7--10--5--3-3-3-3--3-3-3-3--3-3-3-3-|
--0-0-0-0--0-0-0-0---0--0--0-0-0-0--0-0-0-0--0-0-0-0-|


Then itís this for the rest of the song with variations:
---0--0--0--0--0--0--0--0--0--0--0--0--0--0--0--0-|
---0--0--0--0--0--0--0--0--0--0--0--0--0--0--0--0-|
--12-12-12-12-12-12-12-12-12-12-12-12-12-12-12-12-|
---x--x--x--x--x--x--x--x--x--x--x--x--x--x--x--x-|
--10-10-10-10-10-10-10-10-10-10-10-10-10-10-10-10-|
---0--0--0--0--0--0--0--0--0--0--0--0--0--0--0--0-|

--0-0-0-0-0-0-0-0-0-0-0-0-0-0-0-0-|
--0-0-0-0-0-0-0-0-0-0-0-0-0-0-0-0-|
--5-5-5-5-5-5-5-5-5-5-5-5-5-5-5-5-|
--x-x-x-x-x-x-x-x-x-x-x-x-x-x-x-x-|
--3-3-3-3-3-3-3-3-3-3-3-3-3-3-3-3-|
--0-0-0-0-0-0-0-0-0-0-0-0-0-0-0-0-|

That's it, enjoy!
Related for To A Husband At War tab