Guitaretab - guitar tabs
Song name
# A B C D E F G H I J K L M N O P Q R S T U V W X Y Z

I Hate Sally - Hannah Hannah tab

-----------------------------------------------------------------------|
-----------------------------------------------------------------------|
-----------------------------------------------------------------------|
-----------------------------------------------------------------------|
-----------------------------------------------------------------------|
-2p0-0-0-0-0-0-0 2222--------------------------------------------------|

--------------------------------------------------------------------|
--------------------------------------------------------------------|
--------------------------------------------------------------------|
--------------------------------------------------------------------|
--------------------------------------------------------------------|
-3p0-3p0-3p0-8p0-8p0-8p0--------------------------------------------|

-----------------------------------------------------------------------|
-----------------------------------------------------------------------|
-----------------------------------------------------------------------|
-----------------------------------------------------------------------|
-----------------------------------------------------------------------|
-2p0-0-0-0-0-0-0 2222--------------------------------------------------|


--------------------------------------------------------------------|
--------------------------------------------------------------------|
--------------------------------------------------------------------|
--------------------------------------------------------------------|
--------------------------------------------------------------------|
-3p0-3p0-3p0-8p0-8p0-8p0--------------------------------------------|


-----------------------------------------------------|
-----------------------------------------------------|
--1010101010101010-44444444-1010101010101010-44444444|
-----------------------------------------------------|
--8-8-8-8-8-8-8-8--22222222-8-8-8-8-8-8-8-8--22222222|
-----------------------------------------------------|


------------------------------------------|
------------------------------------------|
------------------------------------------|
3333-0000-5555----------------------------|
3333-0000-5555----------------------------|
3333-0000-5555-3p0-2p0-3/4-3p0-2p0-3/4----|

-----------------------------------------------------------------------|
-----------------------------------------------------------------------|
-----------------------------------------------------------------------|
-----------------------------------------------------------------------|
-----------------------------------------------------------------------|
-2p0-0-0-0-0-0-0 2222--------------------------------------------------|
[ Tab from: http://www.guitaretab.com/i/i-hate-sally/100819.html ]
--------------------------------------------------------------------|
--------------------------------------------------------------------|
--------------------------------------------------------------------|
--------------------------------------------------------------------|
--------------------------------------------------------------------|
-3p0-3p0-3p0-8p0-8p0-8p0--------------------------------------------|


-----------------------------------------------------|
-----------------------------------------------------|
--1010101010101010-44444444-1010101010101010-44444444|
-----------------------------------------------------|
--8-8-8-8-8-8-8-8--22222222-8-8-8-8-8-8-8-8--22222222|
-----------------------------------------------------|

---------------------------------------------------------------|
---------------------------------------------------------------|
---------------------------------------------------------------|
3333-0000-5555-------------------------------------------------|
3333-0000-5555-------------------------------------------------|
3333-0000-5555-3p0-2p0-3/4-3p0-2p0-3/4-3p0-2p0-3/4-3p0-2p0-3/4-|

------------------------------------------|
------------------------------------------|
------------------------------------------|
------------------------------------------|2 times
------------------------------------------|
00-000-00-000-33-33-88-55-----------------|
"sorry not right now"
-----------------------------------------------------------------|
-----------------------------------------------------------------|
-----------------------------------------------------------------|
00-00-0-00-0-33-33-88-1313-00-000000-33-33-88-1313---------------|
00-00-0-00-0-33-33-88-1313-00-000000-33-33-88-1313---------------|
00-00-0-00-0-33-33-88-1313-00-000000-33-33-88-1313---------------|


|---------------------------------------------------------------------------|
|---------------------------------------------------------------------------|
|---------------------------------------------------------------------------|
|---------------------------------------------------------------------------|
|5p0-5-5/6/5-5p0-5-5/6/5--7p0-7-7/8/7-7p0-7-7/8/7--2p0-2-2/3/2-2p0-2-2/3/2--|
|---------------------------------------------------------------------------

-------------|
-------------|
-------------|
-------------|2 times
-2-33-1------|
-------------|

-----------------------------------------------------------------------|
-----------------------------------------------------------------------|
-----------------------------------------------------------------------|
-----------------------------------------------------------------------|
-----------------------------------------------------------------------|
-2p0-0-0-0-0-0-0 2222--------------------------------------------------|

--------------------------------------------------------------------|
--------------------------------------------------------------------|
--------------------------------------------------------------------|
-----------------------6-5-------------------------6-5-2-3----------|
-----------------------6-5-------------------------6-5-2-3----------|
1-0-0-1b-0-1b-0-1b-0-0-6-5--1-0-0-1b-0-1b-0-1b-0-0-6-5-2-3-1b0-0----|
Related for Hannah Hannah tab