Guitaretab - guitar tabs
Song name
# A B C D E F G H I J K L M N O P Q R S T U V W X Y Z

I Hate Sally - Martha Served tab

Intro
------------------------------------------------------------------------|
------------------------------------------------------------------------|
-13-11-16-15~-------------------------------------------(11---------)---|
-11-9--14-13~-777777-------------------------11-9-14-13----16-times-----|
-11-9--14-13~-777777-------------------------11-9-14-13-(9----------)---|
-11-9--14-13~-777777-6p0-6p0-6p0-6p0-6p0-6p0-11-9-14-13-----------------|

[ Tab from: http://www.guitaretab.com/i/i-hate-sally/99342.html ]
Outro
----777777----------------------------------------------------------------|
----888888----------------------------------------------------------------|
--7-777777----------------------------------------------------------------|
7-9--------66666-55555-44444-3-33-3/5-------------------------------------|
7----------66666-55555-44444-3-33-3/5-------------------------------------|
7----------66666-55555-44444-3-33-3/5-------------------------------------|
Related for Martha Served tab
×
Martha Served