Guitaretab - guitar tabs
Song name
# A B C D E F G H I J K L M N O P Q R S T U V W X Y Z

I Killed The Prom Queen - Your Shirt Would Look Better With A Columbian Necktie tab

Artist: I killed the prom queen
Song: Your shirt would look better with a Columbian necktie, solo

This is the way I play it. It sounds alright. Please rate it.

Drop-B tuning
C#|--------------------------------------------------------------------------|
G#|15~---1515-1312---121315--------1212-14-111211h---------------------------|
E  |-----------------------12----------------------12------------------------|
B  |-------------------------------------------------------------------------|
F#|--------------------------------------------------------------------------|
B  |-------------------------------------------------------------------------|

|-----15-------15--------12------12-------12--------15--------15------15-----|
|1112-----1112---------------------------------------------------------------|
|--------------------1112----1112----1112-----1112-----1112----1112----------|
|----------------------------------------------------------------------------|
|----------------------------------------------------------------------------|
|----------------------------------------------------------------------------|
[ Tab from: http://www.guitaretab.com/i/i-killed-the-prom-queen/106757.html ]
Don’t underestimate the speed of the picking, so yeah, its pretty fast the next notes r 
,14 ,12,……

|1515151414141212—151412151412151412151412—171514171514171514171514--|
|--------------------------------------------------------------------|
|--------------------------------------------------------------------|
|--------------------------------------------------------------------|
|--------------------------------------------------------------------|
|--------------------------------------------------------------------|

Continued fast part
|191716191716191716191716—19191917171715151514--|
|-----------------------------------------------|
|-----------------------------------------------|
|-----------------------------------------------|
|-----------------------------------------------|
|-----------------------------------------------|

Pace slowed down/ending of solo

|---------17---------------------19-----------------|
|17—171920----17-2019-17—172017---------------------|
|---------------------------------------------------|
|---------------------------------------------------|
|---------------------------------------------------|
|---------------------------------------------------|
Related for Your Shirt Would Look Better With A Columbian Necktie tab
×
Best way to learn
"Your Shirt Would Look Better With A Columbian Necktie"