Song name
# A B C D E F G H I J K L M N O P Q R S T U V W X Y Z

I Killed The Prom Queen - Slain Upon My Faithful Sword tab

I killed the prom queen
Slain Upon My Faithful Sword
Tuning: B F# B E G# C#


||---------------------------------------------------|
||---------------------------------------------------|
||---------------------------------------------------|
||---77----77----88775577------77----77----88775533--|
||------55----55------------------55----55-----------|
||000----------------------000-----------------------|

||---------------------------------------------------|
||---------------------------------------------------|
||---------------------------------------------------|
||----55----55----66553355------55----55----66553311-|
||-------33----33------------------33----33----------|
||000-----------------------000----------------------|

Tap to rate this tab
# A B C D E F G H I J K L M N O P Q R S T U V W X Y Z