Guitaretab - guitar tabs
Song name
# A B C D E F G H I J K L M N O P Q R S T U V W X Y Z

I Killed The Prom Queen - To Be Sleeping While Standing tab

My first tab, i think this is 100 percent right apart from there is no guitar solo. 
Tuning is drop c CGCFAD. Please comment and rate
/ = slide up
\ = slide down
~ = let ring
* = tremolo picking(pick fast)
h = hammer on
p = pull off
()= palm mute

                                    Intro
Guitar 1  0.00-0.21
D-----------------------------------------------------------------------------|
A-----------------------------------------------------------------------------|
F-----------------------------------------------------------------------------|
C-----------------------------------------------------------------------------|
G--8-5-8-7-8-7-5-- play 3 times then ->-8-5-8-7-8-7/12~12h13p12\10------------|
C-----------------------------------------------------------------------------|

Guitar 2 0.00-0.21
D----------------------------------------------------------------------------|
A----------------------------------------------------------------------------|
F----------------------------------------------------------------------------|
C--0~--7~--0~-------------------------0~--7~--8~-----------------------------|
G--0~--7~--0~--play 3 times then->----0~--7~--8~-----------------------------|
C--0~--7~--0~-------------------------0~--7~--8~-----------------------------|

                             Bridge to verse
Guitar 1 0.21-0.31
D----------------------------------------------------------------------------|
A----------------------------------------------------------------------------|
F----------------------------------------------------------------------------|
C--0~~---------------0~------------------------------------------------------|
G--0~~---------------0~------------------------------------------------------|
C--0~~---------------0~--------16\15\14\13\12\11\10\9\8\7\6\5\4\3\2\1\0------|

Guitar 2 repeats what guitar 1 does only does the slide down 2/3 of the way through 
guitar 1's slide down

                                Verse
Guitar 1 0.32-0.53
D-----------------------------------------------------------------------------|
A-----------------------------------------------------------------------------|
F-----------------------------------------------------------------------------|
C-00---000-00--00-------------------------------------------------------------|
G-00---000-00--00---*8888777755777788887777-----play 4 times------------------|
C-00---000-00--00-------------------------------------------------------------|

Guitar 2 0.32-0.53
D----------------------------------------------------------------------------|
A----------------------------------------------------------------------------|
F----------------------------------------------------------------------------|
C-00---000-00--00---8-8-8-5-5-5----------------------------------------------|
G-00---000-00--00---8-8-8-5-5-5----play 4 times------------------------------|
C-00---000-00--00---8-8-8-5-5-5----------------------------------------------|
[ Tab from: http://www.guitaretab.com/i/i-killed-the-prom-queen/293102.html ]
                                  Chorus
Guitar 1 0.53-1.14
D-----------------------------------------------------------------------------|
A-----------------------------------------------------------------------------|
F-----------------------------------------------------------------------------|
C-0-0-000-000-000-------------------------------------------------------------|
G-0-0-000-000-000-7-7-777-777-788-5-5-555-555-577-7777-8888-10101010-12121212-|
C-0-0-000-000-000-------------------------------------------------------------|
                            ^play twice^

Guitar 2 0.53-1.14
D----------------------------------------------------------------------------|
A----------------------------------------------------------------------------|
F----------------------------------------------------------------------------|
C-0-0-000-000-000-7-7-777-777-777-8-8-888-888-888-5-5-555-555-555------------|
G-0-0-000-000-000-7-7-777-777-777-8-8-888-888-888-5-5-555-555-555------------|
C-0-0-000-000-000-7-7-777-777-777-8-8-888-888-888-5-5-555-555-555------------|
                            ^play twice^

From Here you Play the:
-Verse; then the
-Chorus
and there's the solo which i was unable to figure out. sorry about that :(

but after the solo there's this little part here which starts at

2.20-2.40  Guitar 1 and Guitar 2
D----------------------------------------------------------------------------|
A----------------------------------------------------------------------------|
F----------------------------------------------------------------------------|
C----------------------------------------------------------------------------|
G--8~-8p7755~-5h77h88~-----play this 3 times then--8~-8p77\5-----------------|
C----------------------------------------------------------------------------|

Guitar 2   2.40-3.04
D----------------------------------------------------------------------------|
A----------------------------------------------------------------------------|
F----------------------------------------------------------------------------|
C-------------------------------0-0-0-0-0-0-0-0------------------------------|
G-(5555555555555555)5-7-10-12-8-0-0-0-0-0-0-0-0-----play this 4 times--------|
C--------------------0----------0-0-0-0-0-0-0-0------------------------------|

Guitar 1
D----------------------------------------------------------------------------|
A----------------------------------------------------------------------------|
F----------------------------------------------------------------------------|
C-------------------------------0-0-0-0-0-0-0-0------------------------------|
G-------------------------------0-0-0-0-0-0-0-0------play this 4 times-------|
C-------------------------------0-0-0-0-0-0-0-0------------------------------|

Guitar 2 3.04 -3.10
D----------------------------------------------------------------------------|
A----------------------------------------------------------------------------|
F----------------------------------------------------------------------------|
C----------------Play once and then repeat necessary times without palm mute-|
G-(0-0000-000-0--000--0-0000-000-0-0)----------------------------------------|
C-(0-0000-000-0--000--0-0000-000-0-0)----------------------------------------|

Guitar 1 3.09
D----------------------------------------------------------------------------|
A----------------------------------------------------------------------------|
F----------------------------------------------------------------------------|
C----------------------------------------------------------------------------|
G-0-0---0-0000-000-0--000--0-0000-000-0-0------Repeat necessary times--------|
C-0-0---0-0000-000-0--000--0-0000-000-0-0------------------------------------|


And I couldn't really be bothered to figure out the very last bit at the end behind the 
heavy open notes being played that fades out when the song ends. So that's pretty much 
the entire song apart from the solo. Thanks, please rate and comment :)
Related for To Be Sleeping While Standing tab
To Be Sleeping While Standing chords by I Killed The Prom Queen