Guitaretab - guitar tabs
Song name
# A B C D E F G H I J K L M N O P Q R S T U V W X Y Z

I Killed The Prom Queen - To Kill Tomorrow tab

----------------------------------------------------------------|
----------------------------------------------------------------|
-10-10-10-10-12-14------9-9-9-10-10-10-10-9-9-9-9-7-7-7-7-------|
-x--x--x--x--x--x---x2--x-x-x-x--x--x--x--x-x-x-x-x-x-x-x-------|
-8--8--8--8--10-12------7-7-7-8--8--8--8--7-7-7-7-5-5-5-5-------|
----------------------------------------------------------------|
                                                                       X2
------------------------------------------------------------------|
------------------------------------------------------------------|
-9-9-9-9-10-12----------------------------------------------------|
-x-x-x-x-x--x----x2-----33333333-2222222--------------------------|
-7-7-7-7-8--10----------33333333-2222222-<-not sure bout this bit-|
------------------------33333333-2222222--------------------------|

-----------------------------------------------|
-----------------------------------------------|
-----------------------------------------------|
----------------------------7h8p7-5-7----------| X2
-00----000----00----0-5-7-8--------------------|
-00----000----00----0--------------------------|
 ..    ...    ..    . . . .

-----------------------------------------------------------------|
-----------------------------------------------------------------|
-----------------------------------------------------------------|
----7-5---2---0----7-5---2--------7-5---2---3---------7h8p7-5-7--|  X2
-----------------------------3----------------0-5-7-8------------|
-00-----0---0---00-----0---0---00-----0---0---0------------------|
 ..     .   .   ..     .   .   ..     .   .   . . . .


dots = palm mute
[ Tab from: http://www.guitaretab.com/i/i-killed-the-prom-queen/75874.html ]
Related for To Kill Tomorrow tab
To Kill Tomorrow chords by I Killed The Prom Queen