Guitaretab - guitar tabs
Song name
# A B C D E F G H I J K L M N O P Q R S T U V W X Y Z

I Killed The Prom Queen - There Will Be No Violins When You Die tab

-----------------------------------------------------------------------------
 There Will Be No Violins When You Die - I Killed The Prom Queen
-----------------------------------------------------------------------------
tabbed by: ImBarkerRarrrrr
Email:agressiveskata12@yahoo.com

ok this is my first tab so it prolly sucks but i think its 95-99% right
Tuning: Drop B
[ Tab from: http://www.guitaretab.com/i/i-killed-the-prom-queen/86427.html ]
repeat throughout the entire song
|----------8----------------------------------------------------------------|
|-----6-5---6-5------------------------------------------------------------|
|----7(5)-------------------------------------------------------------------|
|---------------------------------------------------------------------------|
|---------------------------------------------------------------------------|
|---------------------------------------------------------------------------|
(5) this is the one barely noticeable change in the song for the lead when the rhythm changes
|---------------------------------------------------------------------------|
|---------------------------------------------------------------------------|
|---------------------------------------------------------------------------|
|-0~-------0-0---10--8-8-7-3~----------------------------------------------|
|-0~-------0-0---10--8-8-7-3~----------------------------------------------|
|-0~-------0-0---10--8-8-7-3~----------------------------------------------|
           . .
|---------------------------------------------------------------------------|
|---------------------------------------------------------------------------|
|---------------------------------------------------------------------------|
|-0~-------0-0---10--8---8-7-3~--------------------------------------------|
|-0~-------0-0---10--8---8-7-3~--------------------------------------------|
|-0~-------0-0---10--8---8-7-3~--------------------------------------------|
           . .
|---------------------------------------------------------------------------|
|---------------------------------------------------------------------------|
|---------------------------------------------------------------------------|
|-0~-------0-0---10--8---8-7-3~--------------------------------------------|
|-0~-------0-0---10--8---8-7-3~--------------------------------------------|
|-0~-------0-0---10--8---8-7-3~--------------------------------------------|
           . .
|---------------------------------------------------------------------------|
|---------------------------------------------------------------------------|
|---------------------------------------------------------------------------|
|-0~-------0-0---10--8---8-7-3~-5\7--8\3-----------------------------------|
|-0~-------0-0---10--8---8-7-3~5\7--8\3-----------------------------------|
|-0~-------0-0---10--8---8-7-3~-5\7-8\3-----------------------------------|
           . .

|---------------------------------------------------------------------------|
|---------------------------------------------------------------------------|
|---------------------------------------------------------------------------|
|-0~-------5\7--8\3---------------------------------------------------------|
|-0~-------5\7--8\3---------------------------------------------------------|
|-0~-------5\7-8\3---------------------------------------------------------|

|---------------------------------------------------------------------------|
|---------------------------------------------------------------------------|
|---------------------------------------------------------------------------|
|-0~-------0-0---10--8---8-7-3~--------------------------------------------|
|-0~-------0-0---10--8---8-7-3~--------------------------------------------|
|-0~-------0-0---10--8---8-7-3~--------------------------------------------|
           . .
|---------------------------------------------------------------------------|
|---------------------------------------------------------------------------|
|---------------------------------------------------------------------------|
|-0~-------0-0---10--8---8-7-3~--------------------------------------------|
|-0~-------0-0---10--8---8-7-3~--------------------------------------------|
|-0~-------0-0---10--8---8-7-3~--------------------------------------------|
           . .
|---------------------------------------------------------------------------|
|---------------------------------------------------------------------------|
|---------------------------------------------------------------------------|
|-0~-------0-0---10--8---8-7-3~-5\7--8\3-----------------------------------|
|-0~-------0-0---10--8---8-7-3~5\7--8\3-----------------------------------|
|-0~-------0-0---10--8---8-7-3~-5\7-8\3-----------------------------------|
           . .
|-----------------------------------------------------------------------------|
|-----------------------------------------------------------------------------|
|-----------------------------------------------------------------------------|
|-0~------5\7--8\3------------------------------------------------------------|
|-0~------5\7--8\3------------------------------------------------------------|
|-0~------5\7-8\3------------------------------------------------------------|


just keep repeating till it fades out

comment/rate it
Related for There Will Be No Violins When You Die tab