Guitaretab - guitar tabs
Song name
# A B C D E F G H I J K L M N O P Q R S T U V W X Y Z

I Killed The Prom Queen - Deepest Sleep tab

-----------------------------------------------------------|
-----------------------------------------------------------|
-14-12----12-----------------------------------------------|
-------15----15-14-15-14-12----12-14-12--------------------|
----------------------------15----------12-15-12-----------|
-----------------------------------------------------------|
[ Tab from: http://www.guitaretab.com/i/i-killed-the-prom-queen/90236.html ]
                                                   P.M.  (Pull Offs)
--------------------------------------------------|--------------------|
--------------------------------------------------|--------------------|
-14-12----12--------------------------------------|-15-14-12-----------|
-------15----15-14-15-14-12----12-14-12-14-15-14--|----------15-14-12--|
----------------------------15--------------------|--------------------|
--------------------------------------------------|--------------------|


-----------------------------------------------------------|
-----------------------------------------------------------|
-14-12----12-----------------------------------------------|
-------15----15-14-15-14-12----12-14-12--------------------|
----------------------------15----------12-15-12-----------|
-----------------------------------------------------------|
[ Tab from: http://www.guitaretab.com/i/i-killed-the-prom-queen/90236.html ]
                                                   P.M.
--------------------------------------------------|--------------------|
--------------------------------------------------|--------------------|
-14-12----12--------------------------------------|-14-12--------------|
-------15----15-14-15-14-12----12-14-12-14-15-14--|-------15-14-15-----|
----------------------------15--------------------|--------------------|
--------------------------------------------------|--------------------|
Related for Deepest Sleep tab
Deepest Sleep chords by I Killed The Prom Queen