Guitaretab - guitar tabs
Song name
# A B C D E F G H I J K L M N O P Q R S T U V W X Y Z

I Killed The Prom Queen - Death Certificate Of A Beauty Queen tab

This tab isnt too hard, may have odd little bit missing but i think i got most of it.
Its a bit rushed though so sorry about that, anyway enjoy.
key
  . - palm mute
 (B)- bend
  * - pinched harmonic
 ph - hammer on

verse x4
--------------------------------------------------------------|
--------------------------------------------------------------|
------------------888777333888777555777-----------------------|
-------------55-----------------------------------------------|
-------------55-----------------------------------------------|
--555-0-111--55-----------------------------------------------|
             ..

--------------------------------------------------------------|
--------------------------------------------------------------|
------------------777788881010101012121212--------------------|
--------------------------------------------------------------|
--------------------------------------------------------------|
--555-0-111---------------------------------------------------|
                                         *
verse finnish
--------------------------------------------------------------|
--------------------------------------------------------------|
---888777333888777555777--------------------------------------|
--------------------------------------------------------------|
--------------------------------------------------------------|
--------------------------------------------------------------|


verse two x4
--------------------------------------------------------------|
--------------------------------------------------------------|
-------------------------------------------------7-5-3--------|
----------3-0-----------------7-3--------8-5-8-5--------555-5-|
--5-1-5-1------1------8-5-8-5-----5---------------------555-5-|
--------------------------------------------------------555-5-|
  . . . .             . . . .            . . . .        ... .

extra bit ending verse two
--------------------------------------------------------------|
--------------------------------------------------------------|
---7-5-3-8----------------------------------------------------|
--------------------------------------------------------------|
--------------------------------------------------------------|
--------------------------------------------------------------|
        (B)

--------------------------------------------------------------|
--------------------------------------------------------------|
--------------------------------------------------------------|
--1-1-11-1-1-1-11-----0-0-00--0-0-00-0-0-00-------------------|
--1-1-11-1-1-1-11-x2--0-0-00--0-0-00-0-0-00-------------------|
--1-1-11-1-1-1-11-----0-0-00--0-0-00-0-0-00-------------------|
  . . .. . . . ..     . . ..  . . .. . . ..


clean 6 times
---------------------------------------------------------------|
-----------------------------------------11-10-----------------|
--7-7-7-8-10---5-5-5-7-5-------10-7-10-7-----------------------|
---------------------------8-8-----8----8----------------------|
---------------------------------------------------------------|
---------------------------------------------------------------|
[ Tab from: http://www.guitaretab.com/i/i-killed-the-prom-queen/93574.html ]
this x4
--------------------------------------------------------------------|
--------------------------------------------------------------------|
---33332222-------333322225555-----33332222----33335555777710101010-|
-1---------3333--5----------------1--------3333---------------------|
-1---------------5----------------1---------------------------------|
-1---------------5----------------1---------------------------------|

then this x4
--------------------------------------------------------------|
--------------------------------------------------------------|
-----3-3-3-3-2-2-2-2------------------------------------------|
-1-1-----------------3-3--------------------------------------|
-1-1----------------------------------------------------------|
-1-1----------------------------------------------------------|

--------------------------------------------------------------|
--------------------------------------------------------------|
-0-0-0--00-0-0-0-0-0-0----------------------------------------|
-0-0-0--00-0-0-0-0-0-0-x4-------------------------------------|
-0-0-0--00-0-0-0-0-0-0----------------------------------------|
 . . .  .. . . . . . .

this something like 16 times or continue playing above
--------------------------------------------------------------|
--------------------------------------------------------------|
--7ph8-7ph10--------------------------------------------------|
--------------------------------------------------------------|
--------------------------------------------------------------|
--------------------------------------------------------------|


verse x2
--------------------------------------------------------------|
--------------------------------------------------------------|
------------------888777333888777555777-----------------------|
-------------55-----------------------------------------------|
-------------55-----------------------------------------------|
--555-0-111--55-----------------------------------------------|
             ..

--------------------------------------------------------------|
--------------------------------------------------------------|
------------------777788881010101012121212--------------------|
--------------------------------------------------------------|
--------------------------------------------------------------|
--555-0-111---------------------------------------------------|
                                         *
verse finnish

--------------------------------------------------------------|
--------------------------------------------------------------|
---888777333888777555777--------------------------------------|
--------------------------------------------------------------|
--------------------------------------------------------------|
--------------------------------------------------------------|

---------------------------------------|
---------------------------------------|
---------------------------------------|
----------3-0-----------------7-3----5-|
--5-1-5-1------1------8-5-8-5-----5--5-|
-------------------------------------5-|
  . . . .             . . . .

----------------------------------END-----PEACE-OUT-------------------------
Related for Death Certificate Of A Beauty Queen tab
Death Certificate Of A Beauty Queen chords by I Killed The Prom Queen