Song name
# A B C D E F G H I J K L M N O P Q R S T U V W X Y Z

I See Stars - The Big Bad Wolf tab

----------------------------------------------------------------------------
			     BIG BAD WOLF - I See Stars
----------------------------------------------------------------------------
Tabbed by:Aleec-O
Email:Alecbojo@aol.com

Tuning:Drop D

e|-------------------------------------------------------------------------|
B|-13p10-------------------------------13s10-------------------------------|
G|-------10---12---10s9-------10-12s14-------------------------------------|
D|----------0----0------10s12----------------------------------------------|
A|-------------------------------------------------------------------------|
D|-------------------------------------------------------------------------|

e|-------------------------------------------------------------------------|
B|-13p10-------------------------------------------------------------------|
G|-------10---12---10s9----------------------------------------------------|
D|----------0----0------10s12~---------------------------------------------|
A|-------------------------------------------------------------------------|
D|-------------------------------------------------------------------------|
Tap to rate this tab
# A B C D E F G H I J K L M N O P Q R S T U V W X Y Z