Guitaretab - guitar tabs
Song name
# A B C D E F G H I J K L M N O P Q R S T U V W X Y Z

I Set My Friends On Fire - Ravenous Ravenous Rhinos tab

-------------------------------------------------------------------------------
Ravenous, Ravenous Rhinos  I Set My Friends on Fire
-------------------------------------------------------------------------------
Tabbed by:cocodog13
Email: f.j_pugh@hotmail.com    mail me if you think I got anything wrong ect.

this is the first tab on the interweb for this song as far as i can see so
please do email me if you have any corections. would be good to get this
exactly right.

Tuning:drop C

First chord:

d|--x--|
a|--x--|
f|--8--|
c|--7--|
g|--6--|
c|--x--|

WHAT THE FUCK?!

d|----------------------------------------------------------------------------|
a|----------------------------------------------------------------------------|
f|----------------------------------------------------------------------------|
c|-------------------------------------------------------------------------7x-|
g|--5h6p500--0-0-0-0--000-0-0-----5-1---3-0-5x---7h8p700--0-0-0-0-000-0-0-0---|
c|-0-----00--0-0-0-0--000-0-0---0-----3---------0-----00--0-0-0-0-000-0-0-0---|
[ Tab from: http://www.guitaretab.com/i/i-set-my-friends-on-fire/118330.html ]
d|----------------------------------------------------------------------------|
a|----------------------------------------------------------------------------|
f|----------------------------------------------------------------------------|
c|---------------8--7---------------------------------------------------------|
g|---------------8--7---------------------------------------------------------|
c|-000-000---0---8--7---------------------------------------------------------|

d|----------------------------------------------------------------------------|
a|----------------------------------------------------------------------------|
f|----------------------------------------------------------------------------|
c|-------------------------------------------------------------------------7x-|
g|--5h6p500--0-0-0-0--000-0-0-----5-1-------5x---7h8p700--0-0-0-0-000-0-0-0---|
c|-0-----00--0-0-0-0--000-0-0---0-----0-3-0-----0-----00--0-0-0-0-000-0-0-0---|

d|--------------------------|
a|--------------------------|
f|--------------------------|
c|-----------8-------10---0-| listen to the song for 
g|-----------8-------10---0-| the rhythm of the 2 chords.
c|-000-000---8-------10---0-|

after interlude.

e|---------------------------------------------------------------------------|
B|----------------------------------11------------18-------------------------|
G|----------------------------------14-------15h17---------------------------|
D|--8--0--10--8-7-0-10-8-7---000--00-----------------0-----------------------|
A|--8--0--10--8-7-0-10-8-7---000--00-----------------0-----------------------|
E|--8--0--10--8-7-0-10-8-7---000--00-----------------0-----------------------|

vv open chugs then sometimes a bit of one of them.  vv

e|---------|----|
B|---------|--4-|
G|---------|--7-|
D|-1-------|----|
A|-1-------|----|
E|-2-------|----|



| h  hammer-on
| p  pull-off
| +  harmonic
| x  Mute note
===============================================================================
Related for Ravenous Ravenous Rhinos tab