Song name
# A B C D E F G H I J K L M N O P Q R S T U V W X Y Z

I Voted For Kodos - These Scars Wont Heal Themselves tab

Song: These Scars Won't Heal Themselves
Artist: I Voted For Kodos
Album: My New Obsession

Tabbed by: Revlin
7/7/06

A very little known, but fantastic band. I saw them at Warped this year. Here's one of 
songs off their new album.

www.iv4k.com


Intro (Figure the strumming and muting out for yourself.)
e|--------------------------|
B|--------------------------|
G|-----2-----2--7--2--7--9--|
D|--4--2--4--2--7--2--7--9--|
A|--4--0--4--0--5--0--5--7--|
E|--2-----2-----------------|


1st Verse
e|------------------------------------------------|
B|------------------------------------------------|
G|-----2-----2--7--2--7--9---------2-----2--7--9--|
D|--4--2--4--2--7--2--7--9--4---4--2--4--2--7--9--|
A|--4--0--4--0--5--0--5--7--4---4--0--4--0--5--7--|
E|--2-----2-----------------2---2-----2-----------|


Chorus
e|--------------------------|
B|--------------------------|
G|-----2-----2--7--2--7--9--|
D|--4--2--4--2--7--2--7--9--|
A|--4--0--4--0--5--0--5--7--|
E|--2-----2-----------------|x2


2nd Verse
e|--------------------------|
B|--------------------------|
G|-----2-----2--7--2--7--9--|
D|--4--2--4--2--7--2--7--9--|
A|--4--0--4--0--5--0--5--7--|
E|--2-----2-----------------|x2


Bridge (Guitar 1)
(I can't quite get it. I'll work on it. Anyone else is welcome to try.)


Bridge (Guitar 2) PM
e|-----|
B|-----|
G|-----|
D|--2--|
A|--2--|
E|--0--|
    .


Order:

Intro
1st Verse
Chorus
2nd Verse
Chorus
Bridge
Chorus


Comments, corrections, e-mail me at SoftAsylum@gmail.com
Tap to rate this tab
# A B C D E F G H I J K L M N O P Q R S T U V W X Y Z