Guitaretab - guitar tabs
Song name
# A B C D E F G H I J K L M N O P Q R S T U V W X Y Z

I Voted For Kodos - Wishful Thinking In Fourth Period tab

Artist: I Voted For Kodos
Song: Wishful Thinking In Fourth Period
Album: My New Obsession

Tabbed By: Revlin
8/4/06


Another Kodos song. Another goodun' off the new album. Enjoy.

And figure the strumming out for yourself.


Verse Riff

e|---------------------------------------------------|
B|---2-2-3--2~---2--5-3-2~---2--3--2~---2--0h2-0h2~--|
G|--2-2----2----2-2---------2-2---2----2-2-----------|
D|---------------------------------------------------|
A|---------------------------------------------------|
E|---------------------------------------------------|


Chorus
[ Tab from: http://www.guitaretab.com/i/i-voted-for-kodos/76348.html ]
e|-----------------------------------------------------------|
B|-----------------------------------------------------------|
G|----------7--9--11-----7--4--2-------7--9--11-----7--4--2--|
D|-------7--7--9--11--7--7--4--2----7--7--9--11--7--7--4--2--|
A|-------7--5--7--9---7--5--2--0----7--5--7--9---7--5--2--0--|
E|--12/5-5------------5-------------5------------5-----------|


Verse 2 (Last part of it)

Play the chorus palm muted, but don't play the slide at the begining.


Solo

e|-----------------------------------------------------------12~-------14-12--|
B|-----------------------------------------------------10-12-----10-12--------|
G|------9~------11-9-7-6h7p6-------9-7------------9h11------------------------|
D|--7-9-----7-9--------------7-7h9-----7h9-7--7h9-----------------------------|
A|----------------------------------------------------------------------------|
E|----------------------------------------------------------------------------|

e|--10-9h10-9h10-9b10r9--------|
B|----------------------11-11--|
G|-----------------------------|
D|-----------------------------|
A|-----------------------------|
E|-----------------------------|



Comment, corrections, e-mail me at SoftAsylum@gmail.com
Related for Wishful Thinking In Fourth Period tab