Song name
# A B C D E F G H I J K L M N O P Q R S T U V W X Y Z

I Wish I Was An Astronaut - Combafield tab

Help us improve GuitareTab! Take a short survey!
www.myspace.com/iwiwaa

Intro
E|-------------------|
B|-------------------|
G|------8------------|
D|---10---10----6--3-| x 4
A|-8----------4---1--|
D|-------------------|

Verse
E|-------------------|
B|-------------------|
G|------8------------|
D|---10---10----6--3-| x 7
A|-8----------4---1--|
D|-------------------|

Pre Chours
E|-----------|
B|-----------|
G|------8----|
D|---10---10-| x 4
A|-8---------|
D|-----------|

Chours
E|-------------------|
B|-------------------|
G|-------------------|
D|-10---6----3-------| x 4
A|-8-x8-4-x8-1-x16---|
D|-8----4----1-------|

Pre Verse
Verse
E|-------------------|
B|-------------------|
G|------8------------|
D|---10---10----6--3-| x 12
A|-8----------4---1--|
D|-------------------|

Verse
E|-------------------|
B|-------------------|
G|------8------------|
D|---10---10----6--3-| x 7
A|-8----------4---1--|
D|-------------------|

Pre Chours
E|-----------|
B|-----------|
G|------8----|
D|---10---10-| x 4
A|-8---------|
D|-----------|

Chours
E|-------------------|
B|-------------------|
G|-------------------|
D|-10---6----3-------| x 4
A|-8-x8-4-x8-1-x16---|
D|-8----4----1-------|

Bridge Part 1
E|---------------------------|
B|---------------------------|
G|---------------------------|
D|-1111-1010-1111-8-8--8--8--| x 6
A|-9-9--8-8--9-9--6-6--8--8--|
D|-9-9--8-8--9-9--6-6--6--6--|

Bridge Part 2
E|-------------------|
B|-------------------|
G|-------------------|
D|-10---6----3-------| x 1 Palm Mute
A|-8-x8-4-x8-1-x16---|
D|-8----4----1-------|
   *    *    *
E|-------------------|
B|-------------------|
G|-------------------|
D|-10---6----3-------| x 1 Palm Mute But Let The Last Note Ring Out
A|-8-x8-4-x8-1-------|
D|-8----4----1-------|
   *    *    

Chours
E|-------------------|
B|-------------------|
G|-------------------|
D|-10---6----3-------| x 6
A|-8-x8-4-x8-1-x16---|
D|-8----4----1-------|

Bridge Part 1 Again
E|---------------------------|
B|---------------------------|
G|---------------------------|
D|-1111-1010-1111-8-8--8--8--| x 5
A|-9-9--8-8--9-9--6-6--8--8--|
D|-9-9--8-8--9-9--6-6--6--6--|

Outtro
E|-----------------|
B|-----------------|
G|-----------------|
D|-1111-1010-11/8--| x 1 Slide The Last Notes
A|-9-9--8-8--9-/8--|
D|-9-9--8-8--9-/6--|

www.myspace.com/iwiwaa
Related for Combafield tab