Song name
# A B C D E F G H I J K L M N O P Q R S T U V W X Y Z

Ian Anderson - Lost In Crowds tab

Ian Anderson - Lost In Crowds

Intro (flute or whatever):
E||--------------19----17----|----------------------------------------|
B||--19----20----------------|--19--20-19p-17-----20----19----15--17h-|
G||--------------------------|----------------19----------------------|
D||--------------------------|----------------------------------------|
A||--------------------------|----------------------------------------|
E||--------------------------|----------------------------------------|

 
---------------------------------------------|-------------------------||
--15p-13-------------------------------------|-------------------------||
---------12----16--17-16-14-----14----17-14h-|--12--14-L---------------||
----------------------------17---------------|-------------------------||
---------------------------------------------|-------------------------||
---------------------------------------------|-------------------------||

E||----------------19----17----|----------------------------------------|
B||--17-19p-15p-20-------------|--19--20-19p-17-----20----19----15--17h-|
G||----------------------------|----------------19----------------------|
D||----------------------------|----------------------------------------|
A||----------------------------|----------------------------------------|
E||----------------------------|----------------------------------------|

---------------------------------------------|-------------------------||
--15p-13-------------------------------------|-------------------------||
---------12----16--17-16-14-----14----17-14h-|--12--17-L---------------||
----------------------------17---------------|-------------------------||
---------------------------------------------|-------------------------||
---------------------------------------------|-------------------------||

After intro:
Cm D# Dm Gm
Am C Bm Em
The rest to be continued... :D
I just know it goes something like: Em, D, D, Bm, Am
or with capo on 7th fret: Am, G, G, Em, D
(probably some suses in beetween)
Tap to rate this tab
# A B C D E F G H I J K L M N O P Q R S T U V W X Y Z