Guitaretab - guitar tabs
Song name
# A B C D E F G H I J K L M N O P Q R S T U V W X Y Z

Ian Brown - Getting High tab

Getting High
Ian Brown

Intro - ad lib around b pentatonic (7th fret)


main riff/ verse

E-----------------|-----------------|-----------------|-----------------|
B-----------------|-----------------|-----------------|-----------------|
G-----------------|-----------------|-----------------|-10-10-10--8-8-8-|
D-10-10-10-10-10--|-10-10-10-10-10--|-------1---------|-10-10-10--8-8-8-|
A-10-10-10-10-10--|-10-10-10-10-10--|---1-3---3-1-3-3-|-8--8--8---6-8-8-|
E-8--8--8--8--8---|-8--8--8--8--8---|-3---------------|-----------------| 
[ Tab from: http://www.guitaretab.com/i/ian-brown/192691.html ]

repeat riff untill he sings "getting high" then do this once, then back to riff


E-----------------|-----------------|-----------------|-----------------|
B-----------------|-----------------|-----------------|-----------------|
G-----------------|-----------------|-----------------|-----------------|
D--6-6-6----------|-8-8-8-8-8-8-8---|-----------------|-----------------|
A--6-6-6----------|-8-8-8-8-8-8-8---|-----------------|-----------------|
E--4-4-4----------|-6-6-6-6-6-6-6---|-----------------|-----------------|





Related for Getting High tab
×
Getting High