Song name
# A B C D E F G H I J K L M N O P Q R S T U V W X Y Z

Ian Brown - Golden Gaze tab

one other guys posted and i worked it out from his tab but mine is right. rate it


Intro

best to do this finger picked, probably with abit of distortion and maybe chorus.

  E-------0--------0-------------0----------0----------|
  B----------------------------------------------------|
  G-----8---8----8---8---------9----9-----9----9-------|
  D----9---9----9---9--------10---10----10---10--------|
  A----------------------------------------------------|
  E---7---------------------8--------------------------|

  E-------0--------0------------0--------0-------------|
  B----------------------------------------------------|
  G-----6---6----6---6--------6---6----6---6-----------|     X 2 all of intro
  D----7---7----7---7--------7---7----7---7------------|
  A----------------------------------------------------|
  E---5---------------------5--------------------------|


Heavily Distorted riff that comes in after fingerpicking and carries on throughout song.

  B5         A5  C5              D5  A5         G5  A5          G5
E-----------------------------------------------------------------|
B-----------------------------------------------------------------|
G-----------------------------------------------------------------|   Repeat
D-9--9--9--9--7--10--10--10--10--12--7--7--7--7--5--7--7--7--7--5-|
A-9--9--9--9--7--10--10--10--10--12--7--7--7--7--5--7--7--7--7--5-|
E-7--7--7--7--5--8---8---8---8---10--5--5--5--5--3--5--5--5--5--3-|

Theres afew more bits but i cant be bothered tabbing it out, the fingerpickin intro 
back at the end of the tune.

RaTE this tab please its my first.
Tap to rate this tab
# A B C D E F G H I J K L M N O P Q R S T U V W X Y Z