Song name
# A B C D E F G H I J K L M N O P Q R S T U V W X Y Z

Ian Brown - El Mundo Pequeno tab

Help us improve GuitareTab! Take a short survey!
Highlighted       Show chord diagrams
------------------------------------------------
        El Mundo Pequeno - Ian Brown
------------------------------------------------

Tabbed by: Vanja's Roommate
Email: sumadijskibreakbeat@yahoo.com

Tuning: Standard


Chords:

    D          D7         G          Gm
e|--2------3---2------0---3----------3----------|
B|--3------3---1------1---3----------3----------|
G|--2------2---2------2---4----------3----------|
D|--0------0---0------0---5----------5----------|
A|------------------------5----------5----------|
E|------------------------3----------3----------|
 

Solo:

e|------7-5--------------5----------------------|
B|--7----7----878----56----8--------------------|
G|------------------7---------------------------|
D|----------------------------------------------|
A|----------------------------------------------|
E|----------------------------------------------|
Related for El Mundo Pequeno tab