Song name
# A B C D E F G H I J K L M N O P Q R S T U V W X Y Z

Ian Brown - Illegal Attacks tab

Ian Brown - Illegal Attacks into (standard tuning)
tabbed by t0mmy9@hotmail.com
love the song.

---------------19--              ---------------19--|
-------------------              -------------------|
-------21----------  x4 then     -------19----------|    x4 then
-----------21------              -----------19------|
---19--------------              ---19--------------|
-------------------              -------------------|


---------------19--              ---------------17--|
-------------------              -------------------|
-------17----------  x2 then     -------17----------|    x2 then
-----------17------              -----------17------|
---15--------------              ---14--------------|
-------------------              -------------------|


---------------19--|
-------------------|
-------21----------|  x4
-----------21------|
---19--------------|
-------------------|         ...so what the f*ck!
Tap to rate this tab
# A B C D E F G H I J K L M N O P Q R S T U V W X Y Z