Song name
# A B C D E F G H I J K L M N O P Q R S T U V W X Y Z

Ian Moore - How Does It Feel tab

Open D tuning: D A D F# A D
 
Chords:
 
D:         0 0 0 0 0 0
Dmaj7:     0 4 0 3 0 0
D(viii):   0 9 0 8 0 0
D(xii):    0 12 0 12 0 0
Dsus4add9: 0 10 0 10 0 0
A:         7 7 7 7 7 7
G:         5 5 5 5 5 5
G/d:       0 2 0 1 0 0
 
 2/4                  4/4
-0-|-0-------0---0-0-|-0-----------------------0-0-----|
-0-|-0-------0---0-0-|-0-----------------------0-0-----|
-3-|-3-------0---0-1-|-1-----------------------1-1-----|
-0-|-0-------0---0-0-|-0-------------------------------|
---|-4-----------0-2-|-2---------------------------2-0-|
---|-0-----------0-0-|-0-------------------------------|
   | 1   .   2   .   | 1   .   2   .   3   .   4   .   |
 
|-----0-----------------------0---|-----------------------------0---|
|---------------------------------|-------------------0-------------|
|---------0-1---0-1-1-0-----------|---1-1-0-1-1-0-1-1---1-0------(0)|
|-----------------------0---------|-------------------------0-------|
|---------------------------------|---------------------------------|
|-0-----------------------0-------|---------------------------------|
| 1   .   2   .   3   .   4   .   | 1   .   2   .   3   .   4   .   |
3/4                       4/4
|-------------------------|----(0)--0---0-0-----0---0-0-0-0-|
|-------------------------|----(0)--0---0-0-----0---0-0-0-0-|
|(1)------1-1-0-1-----0---|----(0)--0---0-0-----0---0-0-0-0-|
|-------------------0-0---|---------0-----------0---0-0-0-0-|
|-----------------2-------|---------0-----------------------|
|-----------------------0-|-0-------0-------0---------------|
| 1   .   2   .   3   .   | 1   .   2   .   3   .   4   .   |
 
Verse:
 
Dmaj7          G/d               D 
  How does it feel    to be completely unreal
Dmaj7          G/d               D  
  How does it feel    to be a voter
Dmaj7          G/d               D  
  How does it feel    to be a voluntary heel
A
  I wonder who's it is
D G                   D         G              D
   I see ya queueing up outside   St. Peter's gate
D(xii)           Dsus4add9      D(viii) Dmaj7      G/d 
 You can feel bona fide if you ride      with the tide but its not
Fig.1
4/4                               3/4   m
|-----0---0---0-0-0---0---0-------|-0---0(0)0---0-0-0-0-0-0-|
|-----0---0---0-0-0---0---0-------|-0---0(0)0---0-0-0-0-0-0-|
|-----0---0h1-1-0-1---1---0-------|-0h1-1(0)1---0-1-1-0-0-0-|
|---------0---0-0-0---0---0-------|-0---0(0)0---0-0-0-0-0-0-|
|---------0h2-2-0-2---2---0-------|-0h2-2---2---0-2-2-0-0-0-|
|-0-------0---0-0-0---0---0-------|-0-------0---0-0-0-0-0-0-|
| 1   .   2   .   3   .   4   .   | 1   .   2   .   3   .   |
  real.
 
4/4
|---------0---x-0---0-0---0-0-0-0-|
|---------0---x-0---0-0---0-0-0-0-|
|---------0---x-0---0-0---0-0-0-0-|
|---------0---x-0-----0---0-0-0-0-|
|---------0-----------0---0---0---|
|-0-------0-------0---0---0---0---|
| 1   .   2   .   3   .   4   .   |
 
Chorus:
A                          D G                  D
 And outside on the dragon     and inside in the cold
A                          D G             A
 Mum is on the band wagon      and Dad is just getting old
D(xii)           Dsus4add9  D(viii)   D(xii)      Dsus4add9 D(viii)
 And through the blood spew  heavens, the roar of lust  complains
D(xii)  Dsus4add9   D(viii) Dmaj7 G/d                        Fig.1
 Please let me in I have no     sins    but you know I'm not real.
 
Tap to rate this tab
# A B C D E F G H I J K L M N O P Q R S T U V W X Y Z