Song name
# A B C D E F G H I J K L M N O P Q R S T U V W X Y Z

Ian Moore - April tab

To my opinion a very nice song from a very nice band, tabs are hard 
to come by! 

It obviously needs continuous fingerpicking which is a bit 
useless (and hard) to denote in full. Just give it swing of your own.  

Intro
     F       Ebmaj7
e|---5----------6-------------------------------------------------|
B|---6----------3-------------------------------------------------|
G|---5----------7-------------------------------------------------|
D|---7----------8-------------------------------------------------|
A|---8----------6-------------------------------------------------|
E|----------------------------------------------------------------|

   April runaway,   she's bound for july 
     Bb     Eb     Cm      F        Gm       F    Eb
e|-----------------3----------------------------------------------|
B|---3------4------4-------1---------3-------10---8---------------|
G|---3------3------5-------2---------3-------10---8---------------|
D|---3------5------5-------3---------5-------10---8---------------|
A|---1------6------3-------3---------5-------8----6---------------|
E|-----------------x-------1---------3----------------------------|

   Faster every day, she's moving alright 
     Bb     Eb     Cm      F        Gm       C      

e|-----------------3-------1---------3----------------------------|
B|---3------4------4-------1---------3-------5--------------------|
G|---3------3------5-------2---------3-------5--------------------|
D|---3------5------5-------3---------5-------5--------------------|
A|---1------6------3-------3---------5-------3--------------------|
E|-----------------x-------1---------3----------------------------|

And she kills no time at all Tells you lies and gives you nothing 
        Ebmaj7                                             C
e|----------------------------------------------------------------|
B|--------8------------------------------------------------5------|
G|--------7------------------------------------------------5------|
D|--------8------------------------------------------------5------|
A|--------6------------------------------------------------3------|
E|----------------------------------------------------------------|

And she kills no time at all 
        Ebmaj7                                             
e|----------------------------------------------------------------|
B|--------8-------------------------------------------------------|
G|--------7-------------------------------------------------------|
D|--------8-------------------------------------------------------|
A|--------6-------------------------------------------------------|
E|----------------------------------------------------------------|


Sunday quiet day, only morn on my side 
  Bb     Eb     Cm      F        Gm       F    Eb
Arising anyway, true love grows goodbyes 
  Bb     Eb     Cm      F        Gm       C      

  Ebmaj7   C   Ebmaj7  C                             

It's the summerbreeze she likes but it's only april 
          Bb               Bbmaj7             Eb
e|----------------------------------------------------------------|
B|---------3----------------3------------------8------------------|
G|---------3----------------2------------------8------------------|
D|---------3----------------3------------------8------------------|
A|---------1----------------1------------------6------------------|
E|----------------------------------------------------------------|

        Freezes the     memory              again 
          Bb               Bbmaj7             Eb

     Holdin' on to thee, forever drown in your 
       Cm     Gm            F                  
e|----------------------------------------------------------------|
B|-----4------3-------------4-------------------------------------|
G|-----5------3-------------5-------------------------------------|
D|-----5------5-------------7-------------------------------------|
A|-----3------5-------------8-------------------------------------|
E|------------3---------------------------------------------------|

 
    eyes,      deep blue eyes        .. eyes     
    Ebmaj7  C            Ebmaj7  C    Ebmaj7  C  Ebmaj7  
e|----------------------------------------------------------------|
B|----8-----5--------------8-----5-------8----5----8--------------|
G|----7-----5--------------7-----5-------7----5----7--------------|
D|----8-----5--------------8-----5-------8----5----8--------------|
A|----6-----3--------------6-----3-------6----3----6--------------|
E|----------------------------------------------------------------|

outro 

     Bb     Eb     Cm      F        Gm       
e|-----------------3----------------------------------------------|
B|---3------4------4-------1---------3----------------------------|
G|---3------3------5-------2---------3----------------------------|
D|---3------5------5-------3---------5----------------------------|
A|---1------6------3-------3---------5----------------------------|
E|-----------------x-------1---------3----------------------------|

http://www.daryllann.com/
Tap to rate this tab
# A B C D E F G H I J K L M N O P Q R S T U V W X Y Z