Song name
# A B C D E F G H I J K L M N O P Q R S T U V W X Y Z

Ian Moore - Society Acoustic tab

Ian Moore- Society from KGSR Brodcast vol.4 - 15
standard
 Intro
:---------------------------------------------------------2-2-xx-2-2-xx-22-|
:---------------------------------------------------------x-x-xx-x-x-xx-xx-|
:---x--x---x-xxxx---6-6-66------8-8-888-----3-3-333333----2-2-xx-2-2-xx-22-|
:---x--x---x-xxxx---6-6-66------9-9-999-----4-4-444444----1-1-xx-1-1-xx-11-|
:---x--x---x-xxxx---4-4-44------9-9-999-----4-4-444444----2-2-xx-2-2-xx-22-|
:-------------------------------7-7-777-----2-2-222222---------------------|
                                                      play this chord above
                                                                      twice

:---------------------------------------------------------2-2-xx-2-2-xx-22-|
:---------------------------------------------------------x-x-xx-x-x-xx-xx-|
:---x--x---x-xxxx---6-6-66------8-8-888-----3-3-333333----2-2-xx-2-2-xx-22-|
:---x--x---x-xxxx---6-6-66------9-9-999-----4-4-444444----1-1-xx-1-1-xx-11-|
:---x--x---x-xxxx---4-4-44------9-9-999-----4-4-444444----2-2-xx-2-2-xx-22-|
:-------------------------------7-7-777-----2-2-222222---------------------|
                                                     then play this chord
                                                                  3 times


:---44-4--33-3--22-22222--:
:---33-3--22-2--11-11111--:
:---44-4--33-3--22-22222--:
:-------------------------:
:-------------------------:
:-------------------------:

Verse:
:----------------------------------------------------------------------|
:----------------------------------------------------------------------|
:---6-6-xx-6-6-xx-6-6-xx---8-8-xx-8-8-xx-8-8-xx---3-3-xx-3-3-xx-3-3-xx-|
:---6-6-xx-6-6-xx-6-6-xx---9-9-xx-9-9-xx-9-9-xx---4-4-xx-4-4-xx-4-4-xx-|
:---4-4-xx-4-4-xx-4-4-xx---9-9-xx-9-9-xx-9-9-xx---4-4-xx-4-4-xx-4-4-xx-|
:--------------------------7-7-xx-7-7-xx-7-7-xx---2-2-xx-2-2-xx-2-2-xx-|


:-----------------------:
:-----------------------:
:---4-4-xx-4-4-xx-4-4-x-:
:---4-4-xx-4-4-xx-4-4-x-:
:---2-2-xx-2-2-xx-2-2-x-:
:-----------------------:

Chorus:

:-------------------------------------------------------:
:-------------------------------------------------------:
:---6-----6---xx--8------8---xx----3----3-3333---4-4-4--:
:---6-----6---xx--9------9---xx----4----4-4444---4-4-4--:
:---4-----4---xx--9------9---xx----4----4-4444---2-2-2--:
:-----------------7------7---xx----2----2-2222----------:

lyrics:


Ive been really tryin to get some peace of mind

baby the world keeps on spinin

and im startin to unwind

teachers teaching children to go out and get there own

but the forget about the heart child they forget about the soul

Chorus

and its hard to convince yourself

when your lifes been      by power and welth

you spend your whole life tryin to break free from this society

yeah ohhh.. ohhh uhh
Tap to rate this tab
# A B C D E F G H I J K L M N O P Q R S T U V W X Y Z