Song name
# A B C D E F G H I J K L M N O P Q R S T U V W X Y Z

Ian Van Dahl - Castles In The Sky tab

Help us improve GuitareTab! Take a short survey!
----------------------------------------------------------------------------
			   Castles in the sky - Ian Van Dahl
----------------------------------------------------------------------------

www.ianvandahl.com

Tabbed by: Cristof Jones
Email:Yoda_ina_skoda@hotmail.com

Tuning: standard

mainly due to the fact im lazy - u can work out the rhythms for yourselves 
i provide the notes u figure out the rhythms for yourselves

intro/bridge bit
           x4 and then   
e|---------|---------------------------------------------------|
B|-16--15--|-------16--15----11--12----------------------------|
G|--------.|---------------------------------------------------|
D|-13--12-.|-------13--12----8---10----------------------------|
A|---------|---------------------------------------------------|
E|---------|---------------------------------------------------|

and the rest of the song is based on this riff: - btw this sounds best picked as 16th
notes listen for the changes ypourself n you'll get em

e|------------------------------------------------------------|
B|------------------------------------------------------------|
G|-------------------10--12-----------------------------------|
D|--13--8--10--12-13--------8--10-----------------------------|
A|------------------------------------------------------------|
E|------------------------------------------------------------|

            and thats the whole song

| /  slide up
| \  slide down
| h  hammer-on
| p  pull-off
| ~  vibrato
| +  harmonic
| x  Mute note
===============================================================================
Related for Castles In The Sky tab