Song name
# A B C D E F G H I J K L M N O P Q R S T U V W X Y Z

Ice Cube - We Be Clubbin tab

Ice Cube - We Be Clubbin
Submitted By: rap_boy
EMail: jason_wassup@hotmail.com


Guitar w/ distortion                                Let last chord ring           
|---------------------------------------------------------------------|
|---------------------------------------------------------------------|
|---------------------------------------------------------------------|
|8-------8---6---8--------8---6---8--------8---3---4------------------|
|8-------8---6---8--------8---6---8--------8---3---4------------------|
|6-------6---4---6--------6---4---6--------6---1---2------------------|


Guitar - played quietly in some parts of the song (palm muted)
|---------------------------------------------------------------------|
|---------------------------------------------------------------------|
|---------------------------------------------------------------------|
|---------------------------------------------------------------------|
|1-1-1-1-1-1-1-1-1-1-1-1-1-1-1-1-1-1-1-1-1-1-1-1-1-1-1-1-1-1-1-1-1-1-1|
|---------------------------------------------------------------------|
Tap to rate this tab
# A B C D E F G H I J K L M N O P Q R S T U V W X Y Z