Song name
# A B C D E F G H I J K L M N O P Q R S T U V W X Y Z

Ice Nine Kills - Last Words tab

--------------------------------------------------|
7-7-7--------------10-10-10-6-6-6-7-7-7-----------|
-------9-9-9-7-7-7--------------------------------|
--------------------------------------------------|
--------------------------------------------------|
--------------------------------------------------|

--------------------------------------------------|
7-7-7---------------------------------------------|
------9-9-9--7-7-7--6-6-6--7--6-6-6---------------|
--------------------------------------------------|
--------------------------------------------------|
--------------------------------------------------|


--------------------------------------------------|
7-7-7---------10-10--10-10-10--12-12-12-----------|
-------9-9-9--7--7-----------------------7-7-7----|
--------------------------------------------------|
--------------------------------------------------|
--------------------------------------------------|

--------------------------------------------------|
7-7-7---------------------------------------------|
-------9-9-9--7-7-7--6-6-6---7--6-6-6-------------|
--------------------------------------------------|
--------------------------------------------------|
--------------------------------------------------|

Suggestions or Help E-mail me at  Blackoctober707@yahoo.com

This in in tuning E flat.

There are a couple of ways to play this song and this is my way.
Tap to rate this tab
# A B C D E F G H I J K L M N O P Q R S T U V W X Y Z