Song name
# A B C D E F G H I J K L M N O P Q R S T U V W X Y Z

Ice Nine Kills - Build Your Own Disaster tab

I noticed that all the other tabs, well for one, make it harder than it has to 
be, and also don't sound quite right. So, here's what I got. =]

E|-------------------------------------------------------------------------|
B|----------11-------------------------------------------------------------|
G|----12----------12----12----10----13----12----12-------------------------|
D|----------------------------------------------------17----15----17----17-|
A|-------------------------11----11----11----11----------------------------|
D|-10----10----10----10----------------------------13----13----13----13----|

E|-------------------------------------------------------------------------|
B|-------------------------------------------------------------------------|
G|----12----------12----12-------------------------------------------------|
D|----------15-------------15-13-------------------------------------------|
A|-------------------------------------------------------------------------|
D|-12----12----12----10----------------------------------------------------|
Tap to rate this tab
# A B C D E F G H I J K L M N O P Q R S T U V W X Y Z