Song name
# A B C D E F G H I J K L M N O P Q R S T U V W X Y Z

Ice Nine Kills - Build A Bridge And Jump Off tab

Help us improve GuitareTab! Take a short survey!
-------------------------------------------------------------------------------
			     Build A Bridge And Jump Off It - Ice Nine Kills
-------------------------------------------------------------------------------
Tabbed by: Andy Thomas
Email: cooldude_andyman@hotmail.com

Tuning: standard


Im only doing the solo because the rest of the song is really easy to figure out
there's two guitars, but im only tabbing one, and it sounds fine

e|-----------------------------------------------------------------------------|
B|-----------------------------------------------------------------------------|
G|--4-2-4--4-2-4-2-4-5-4-2-------4-2-4-5-4-2-4-2-4-2-4-5-4-2-------------------|
D|--------------------------5----------------------------------5---------------|
A|-----------------------------------------------------------------------------|
E|-----------------------------------------------------------------------------|

e|-----------------------------------------------------------------------------|
B|-----------------------------------------------------------------------------|
G|---------2----------2---/4-2------------2----------2-----2-------------------|
D|---5-5-5--5--5-5-5---5------5----5-5-5---5--5-5-5--5--5--5-------------------|
A|-----------------------------------------------------------------------------|
E|-----------------------------------------------------------------------------|

e|-----------------------------------------------------------------------------|
B|----------------------------------------8-7-8-10-8-7-8-7-8-7-8-10-8-7--------|
G|--4-2-4-5-4-2-4-2-4-2-4-5-4-2-----------------------------------------7------|
D|-------------------------------5---------------------------------------------|
A|-----------------------------------------------------------------------------|
E|-----------------------------------------------------------------------------|

e|---7-------5----------------------------8-7-8-8/10-8-10 10/12-10-12-12/14----|
B|-----8-------8--------------5----5-7-8---------------------------------------|
G|-------7-------7--------5-7--7-----------------------------------------------|
D|-----------------------------------------------------------------------------|
A|-----------------------------------------------------------------------------|
E|-----------------------------------------------------------------------------|

e|-12-14--15-15-15-15-15-15-15-15--14-14-14-14--12-12-12-12--------------------|
B|-----------------------------------------------------------------------------|
G|-----------------------------------------------------------------------------|
D|-----------------------------------------------------------------------------|
A|-----------------------------------------------------------------------------|
E|-----------------------------------------------------------------------------|

e|-----------------------------------------------------------------------------|
B|--13-13-13-13-12-12-12-12--10-10-10-10--12-12-12-12--------------------------|
G|-----------------------------------------------------------------------------|
D|-----------------------------------------------------------------------------|
A|-----------------------------------------------------------------------------|
E|-----------------------------------------------------------------------------|

e|-----------------------------------------------------------------------------|
B|--12-12-12---12-12-12-12--13-13-12-10-10-10--10-10-10-10--13-12-10-8~--------|
G|-----------------------------------------------------------------------------|
D|-----------------------------------------------------------------------------|
A|-----------------------------------------------------------------------------|
E|-----------------------------------------------------------------------------|

e|-----------------------------------------------------------------------------|
B|---13-12-10-8~---------------------------------------------------------------|
G|-----------------------------------------------------------------------------|
D|-----------------------------------------------------------------------------|
A|-----------------------------------------------------------------------------|
E|-----------------------------------------------------------------------------|


| /  slide up
| \  slide down
| h  hammer-on
| p  pull-off
| ~  vibrato
| +  harmonic
| x  Mute note
===============================================================================
Related for Build A Bridge And Jump Off tab