Song name
# A B C D E F G H I J K L M N O P Q R S T U V W X Y Z

Iced Earth - Red Baron Blue Max tab

Help us improve GuitareTab! Take a short survey!
#----------------------------------PLEASE NOTE---------------------------------#
#This file is the author's own work and represents their interpretation of the #
#song. You may only use this file for private study, scholarship, or research. #
#------------------------------------------------------------------------------#

RED BARON/BLUE MAX
As recorded by Iced Earth
(From the 2004 Album THE GLORIOUS BURDEN)


Transcribed by C. Gibb

 Words and Music by Schaffer
Arranged by Schaffer
 

Gtr I (D G C F A D) - 'Ryhthm'
Gtr II (D G C F A D) - 'Ryhthm/Harmony'
Gtr III (D G C F A D) - 'Harmony'
Gtr IV (D G C F A D) - 'Solo'


 Intro
  Q=200
  E5F#5                     E5F#G5F#5 E5F#5             C5B5  G5
 4/4
  Gtr I
      PM|     PM|       PM--------|       PM|     PM--------|
  E E E E E E E E   E E E E E E E E   E E E E E E E E   E E E H    +E
|-----------------|-----------------|-----------------|----------------|
|-----------------|-----------------|-----------------|----------------|
|-----------------|-----------------|-----------------|----------------|
|-----------------|-----------------|-----------------|-5-4------------|
|-2h4-----5p4-----|-4p2-----2-4-5-4-|-2h4-----5p4-----|-3-2-0-5----(5)-|
|-0h2-2-2-----2-2-|-----2-2-0-2-3-2-|-0h2-2-2-----2-2-|-------3----(3)-|
|
| Gtr II
|                           PM----|                     PM--|
| E E H       Q     H       E E E E   E E H       Q     E E E H    +E
|-----------------|-----------------|-----------------|----------------|
|-----------------|-----------------|-----------------|----------------|
|-----------------|-----------------|-----------------|----------------|
|-----------------|-----------------|-----------------|-5-4------------|
|-2h4-------------|---------2-4-5-4-|-2h4-------------|-3-2-0-5----(5)-|
|-0h2-------------|---------0-2-3-2-|-0h2-------------|-------3----(3)-|


    E5F#5
         PM|       PM|        PM---------|
    E  E E E  E  E E E    E E E E E E  E E
||---------------------|-------------------|
||o--------------------|-------------------|
||---------------------|-------------------|
||---------------------|-------------------|
||o-2h=4------5p=4-----|--4p2--------------|
||--0h=2-2-2-------2-2-|------2-2-0-2--3-2-|
|
|        PM|       PM|        PM---------|
|   E  E E E  E  E E E    E E E E E E  E E
||---------------------|-------------------|
||o--------------------|-------------------|
||---------------------|-------------------|
||--9s11-----12p11-----|-11p9--------------|
||o-7s=9-9-9-------9-9-|------9-9-7-9-10-9-|
||---------------------|-------------------|


  E5F#5                        G5
       PM|       PM---------|
  E  E E E  E  E E E    E E  E  H     +E   3x
|--------------------|---------------------||
|--------------------|--------------------o||
|--------------------|---------------------||
|--------------------|---------------------||
|-2h=4------5p=4-----|--3-2--0--5-----(5)-o||
|-0h=2-2-2-------2-2-|----------3-----(3)--||
|
|      PM|       PM---------|   ~~~~~~~~~~
| E  E E E  E  E E E    E E  E  H     +E   3x
|--------------------|---------------------||
|--------------------|--------------------o||
|--------------------|---------------------||
|-9s11-----12p11-----|-10-9----------------||
|-7s=9-9-9-------9-9-|------12-10----(10)-o||
|--------------------|---------------------||


   Verse
           F#5                            A5
    PM--|                        PM---|
    E E q   H       +W           E  E  q   H       +W
||---------------|-------------|----------------|---------|
||o--------------|-------------|----------------|---------|
||---------------|-------------|----------------|---------|
||---------------|-------------|----------------|---------|
||o---------4----|--(4)--------|-----------7----|--(7)----|
||--0-2-2---2----|--(2)--------|-2--5--5---5----|--(5)----|
|
|   PM--|                        PM---|
|   E E q   H       +W           E  E  q   H       +W
||---------------|-------------|----------------|---------|
||o--------------|-------------|----------------|---------|
||---------------|-------------|----------------|---------|
||---------11----|-(11)--------|----------14----|-(14)----|
||o-7-9-9---9----|--(9)--------|-9-12-12--12----|-(12)----|
||---------------|-------------|----------------|---------|


            B5            C5
   PM---|
   E  E  q   H       +Q    H     +E   E
|-----------------|---------------------|
|-----------------|---------------------|
|-----------------|---------------------|
|-----------------|---------------------|
|------------9----|--(9)--10----(10)-10-|
|--5--7--7---7----|--(7)---8-----(8)--8-|
|
|  PM---|
|  E  E  q   H       +Q    H     +E   E
|-----------------|---------------------|
|-----------------|---------------------|
|-----------------|---------------------|
|-----------16----|-(16)--17----(17)-17-|
|-12-14-14--14----|-(14)--15----(15)-15-|
|-----------------|---------------------|


      B5           N.C.
                    PM---------------|
   Q   E E  H       S  S  E  E  E  E  E  Q
|----------------|---------------------------||
|----------------|--------------------------o||
|----------------|---------------------------||
|----------------|--5--5--4------------------||
|-10s==9----9----|-----------7--5--7--5--4--o||
|--8s==7----7----|---------------------------||
|
|                   PM---------------|
|  Q   E E  H       S  S  E  E  E  E  E  Q
|----------------|---------------------------||
|----------------|--------------------------o||
|----------------|-12-12-11------------------||
|-17s=16---16----|----------14-12-14-12-11---||
|-15s=14---14----|--------------------------o||
|----------------|---------------------------||


   Chorus
    E5F#5
         PM|       PM|        PM---------|
    E  E E E  E  E E E    E E E E E E  E E
||---------------------|-------------------|
||o--------------------|-------------------|
||---------------------|-------------------|
||---------------------|-------------------|
||o-2h=4------5p=4-----|--4p2--------------|
||--0h=2-2-2-------2-2-|------2-2-0-2--3-2-|
|
|        PM|       PM|        PM---------|
|   E  E E E  E  E E E    E E E E E E  E E
||---------------------|-------------------|
||o--------------------|-------------------|
||---------------------|-------------------|
||--9s11-----12p11-----|-11p9--------------|
||o-7s=9-9-9-------9-9-|------9-9-7-9-10-9-|
||---------------------|-------------------|


  E5F#5                        G5
       PM|       PM---------|
  E  E E E  E  E E E    E E  E  H     +E
|--------------------|---------------------||
|--------------------|--------------------o||
|--------------------|---------------------||
|--------------------|---------------------||
|-2h=4------5p=4-----|--3-2--0--5-----(5)-o||
|-0h=2-2-2-------2-2-|----------3-----(3)--||
|
|      PM|       PM---------|   ~~~~~~~~~~
| E  E E E  E  E E E    E E  E  H     +E
|--------------------|---------------------||
|--------------------|--------------------o||
|--------------------|---------------------||
|-9s11-----12p11-----|-10-9----------------||
|-7s=9-9-9-------9-9-|------12-10----(10)-o||
|--------------------|---------------------||


   Verse
           F#5                            A5
    PM--|                        PM---|
    E E q   H       +W           E  E  q   H       +W
||---------------|-------------|----------------|---------|
||o--------------|-------------|----------------|---------|
||---------------|-------------|----------------|---------|
||---------------|-------------|----------------|---------|
||o---------4----|--(4)--------|-----------7----|--(7)----|
||--0-2-2---2----|--(2)--------|-2--5--5---5----|--(5)----|
|
|   PM--|                        PM---|
|   E E q   H       +W           E  E  q   H       +W
||---------------|-------------|----------------|---------|
||o--------------|-------------|----------------|---------|
||---------------|-------------|----------------|---------|
||---------11----|-(11)--------|----------14----|-(14)----|
||o-7-9-9---9----|--(9)--------|-9-12-12--12----|-(12)----|
||---------------|-------------|----------------|---------|


            B5            C5
   PM---|
   E  E  q   H       +Q    H     +E   E
|-----------------|---------------------|
|-----------------|---------------------|
|-----------------|---------------------|
|-----------------|---------------------|
|------------9----|--(9)--10----(10)-10-|
|--5--7--7---7----|--(7)---8-----(8)--8-|
|
|  PM---|
|  E  E  q   H       +Q    H     +E   E
|-----------------|---------------------|
|-----------------|---------------------|
|-----------------|---------------------|
|-----------16----|-(16)--17----(17)-17-|
|-12-14-14--14----|-(14)--15----(15)-15-|
|-----------------|---------------------|


      B5           N.C.
                    PM---------------|
   Q   E E  H       S  S  E  E  E  E  E  Q
|----------------|---------------------------||
|----------------|--------------------------o||
|----------------|---------------------------||
|----------------|--5--5--4------------------||
|-10s==9----9----|-----------7--5--7--5--4--o||
|--8s==7----7----|---------------------------||
|
|                   PM---------------|
|  Q   E E  H       S  S  E  E  E  E  E  Q
|----------------|---------------------------||
|----------------|--------------------------o||
|----------------|-12-12-11------------------||
|-17s=16---16----|----------14-12-14-12-11---||
|-15s=14---14----|--------------------------o||
|----------------|---------------------------||


   Chorus
    E5F#5
         PM|       PM|        PM---------|
    E  E E E  E  E E E    E E E E E E  E E
||---------------------|-------------------|
||o--------------------|-------------------|
||---------------------|-------------------|
||---------------------|-------------------|
||o-2h=4------5p=4-----|--4p2--------------|
||--0h=2-2-2-------2-2-|------2-2-0-2--3-2-|
|
|        PM|       PM|        PM---------|
|   E  E E E  E  E E E    E E E E E E  E E
||---------------------|-------------------|
||o--------------------|-------------------|
||---------------------|-------------------|
||--9s11-----12p11-----|-11p9--------------|
||o-7s=9-9-9-------9-9-|------9-9-7-9-10-9-|
||---------------------|-------------------|


  E5F#5                        G5
       PM|       PM---------|
  E  E E E  E  E E E    E E  E  H     +E   4x
|--------------------|---------------------||
|--------------------|--------------------o||
|--------------------|---------------------||
|--------------------|---------------------||
|-2h=4------5p=4-----|--3-2--0--5-----(5)-o||
|-0h=2-2-2-------2-2-|----------3-----(3)--||
|
|      PM|       PM---------|   ~~~~~~~~~~
| E  E E E  E  E E E    E E  E  H     +E   4x
|--------------------|---------------------||
|--------------------|--------------------o||
|--------------------|---------------------||
|-9s11-----12p11-----|-10-9----------------||
|-7s=9-9-9-------9-9-|------12-10----(10)-o||
|--------------------|---------------------||


 Bridge
  N.C.
   PM---------------|         PM---------------|
   S  S  E  E  E  E  E  Q     S  S  E  E  E  E  E  Q
|--------------------------|--------------------------|
|--------------------------|--------------------------|
|--------------------------|--------------------------|
|--5--5--4-----------------|--5--5--4-----------------|
|-----------7--5--7--5--4--|-----------7--5--7--5--4--|
|--------------------------|--------------------------|
|
|  PM---------------|         PM---------------|
|  S  S  E  E  E  E  E  Q     S  S  E  E  E  E  E  Q
|--------------------------|--------------------------|
|--------------------------|--------------------------|
|-12-12-11-----------------|-12-12-11-----------------|
|----------14-12-14-12-11--|----------14-12-14-12-11--|
|--------------------------|--------------------------|
|--------------------------|--------------------------|


   PM-----------------------------------------------|
   S  S  E  E  E  S  S  E  E  E    S  S  E  E  E  E  E  Q
|-------------------------------|---------------------------|
|-------------------------------|---------------------------|
|-------------------------------|---------------------------|
|--5--5--4--------5--5--4-------|--5--5--4------------------|
|-----------7--5-----------7--5-|-----------7--5--7--5--4---|
|-------------------------------|---------------------------|
|
|  PM-----------------------------------------------|
|  S  S  E  E  E  S  S  E  E  E    S  S  E  E  E  E  E  Q
|-------------------------------|---------------------------|
|-------------------------------|---------------------------|
|-12-12-11-------12-12-11-------|-12-12-11------------------|
|----------14-12----------14-12-|----------14-12-14-12-11---|
|-------------------------------|---------------------------|
|-------------------------------|---------------------------|


   Interlude
    F#                 A                     B
      PM--|     PM---|    PM----|      PM--|    PM   PM
    E S S E  E  S  S E  E S S    E   E S S E  E E  E E
||----------------------------|------------------------|
||o---------------------------|------------------------|
||----------------------------|------------------------|
||----------11---------12-----|-----14-------12---11---|
||o-9-9-9-9-----9--9-9----9-9-|--9-----9-9-9----9----9-|
||----------------------------|------------------------|
|
|   H          +Q       Q       +H            H
||----------------------------|------------------------|
||o---------------------------|------------------------|
||----------------------------|------------------------|
||--4----------(4)------7-----|-(7)-----------9--------|
||o---------------------------|------------------------|
||--2----------(2)------5-----|-(5)-----------7--------|


  A                B      C#
           PM--------|                       PM------|
   S  S  S E  E  E    E E    E.     S   S  S E  E  E  E E E.
|-------------------------------|------------------------------|
|-------------------------------|------------------------------|
|-------------------------------|------------------------------|
|-11h12p11-9-11-----------------|--11h=12p11-9-11--------------|
|---------------12---11-9-------|-----------------12-11-9------|
|-------------------------------|------------------------------|
|
|  H               Q       Q       +W
|-------------------------------|------------------------------|
|-------------------------------|------------------------------|
|-------------------------------|------------------------------|
|--7---------------9------11----|-(11)-------------------------|
|-------------------------------|------------------------------|
|--5---------------7-------9----|--(9)-------------------------|


  E                  D               B          D
    PM--|     PM---|    PM----|      PM--|    PM   PM
  E S S E  E  S  S E  E S S    E   E S S E  E E  E E
|---------------------------|------------------------|
|---------------------------|------------------------|
|---------------------------|------------------------|
|---------11---------12-----|-----14-------12---11---|
|-9-9-9-9-----9--9-9----9-9-|--9-----9-9-9----9----9-|
|---------------------------|------------------------|
|
| H          +Q       Q       +Q     H           Q
|---------------------------|------------------------|
|---------------------------|------------------------|
|-9----------(9)------7-----|-(7)----4----------/7---|
|---------------------------|------------------------|
|-7----------(7)------5-----|-(5)----2----------/5---|
|---------------------------|------------------------|


  C#
           PM------|                   PM------|
   S  S  S E  E  E  E E E.    S   S  S E  E  E  E E E.
|--------------------------|---------------------------|
|--------------------------|---------------------------|
|--------------------------|---------------------------|
|-11h12p11-9-11------------|-11h=12p11-9-11------------|
|---------------12-11-9----|----------------12-11-9----|
|--------------------------|---------------------------|
|
|  W                         +W
|--------------------------|---------------------------|
|--------------------------|---------------------------|
|--6-----------------------|-(6)-----------------------|
|--------------------------|---------------------------|
|--4-----------------------|-(4)-----------------------|
|--------------------------|---------------------------|


  G#                       B                          C#
      PM---|      PM----|      PM-----|       PM---|      PM    PM
   E  S  S  E  E  S   S  E  E  S  S    E   E  S  S  E  E  E  E  E
|-----------------------------------|-----------------------------|
|-----------------------------------|-----------------------------|
|-----------------------------------|-----------------------------|
|-------------13-----------14-------|-----16----------14----13----|
|-11-11-11-11----11--11-11----11-11-|-11-----11-11-11----11----11-|
|-----------------------------------|-----------------------------|
|
|  H             +Q         Q         +H               H
|-----------------------------------|-----------------------------|
|-----------------------------------|-----------------------------|
|---------------------------4-------|-(4)--------------6----------|
|--6-------------(6)----------------|-----------------------------|
|---------------------------2-------|-(2)--------------4----------|
|--4-------------(4)----------------|-----------------------------|


  B                 C#      Eb
            PM--------|                       PM------|
   S  S  S  E  E  E    E  E   E.    S   S  S  E  E  E  E  E E.
|--------------------------------|-----------------------------|
|--------------------------------|-----------------------------|
|--------------------------------|-----------------------------|
|-13h14p13-11-13-----------------|-13h=14p13-11-13-------------|
|----------------14---13-11------|-----------------14-13-11----|
|--------------------------------|-----------------------------|
|
|  H                Q       Q      +W
|--------------------------------|-----------------------------|
|--------------------------------|-----------------------------|
|--4----------------6-------8----|-(8)-------------------------|
|--------------------------------|-----------------------------|
|--2----------------4-------6----|-(6)-------------------------|
|--------------------------------|-----------------------------|


  F#                        E                 C#             E
      PM---|       PM----|      PM-----|       PM---|      PM    PM
   E  S  S  E  E   S   S  E  E  S  S    E   E  S  S  E  E  E  E  E
|------------------------------------|-----------------------------|
|------------------------------------|-----------------------------|
|------------------------------------|-----------------------------|
|-------------13------------14-------|-----16----------14----13----|
|-11-11-11-11-----11--11-11----11-11-|-11-----11-11-11----11----11-|
|------------------------------------|-----------------------------|
|
|  H              +Q         Q         +Q      H              Q
|------------------------------------|-----------------------------|
|------------------------------------|-----------------------------|
|-11-------------(11)--------9-------|-(9)-----6-------------/9----|
|------------------------------------|-----------------------------|
|--9--------------(9)--------7-------|-(7)-----4-------------/7----|
|------------------------------------|-----------------------------|


  Eb
            PM------|                     PM------|
   S  S  S  E  E  E  E  E E.    S   S  S  E  E  E  E  E E.
|----------------------------|-----------------------------|
|----------------------------|-----------------------------|
|----------------------------|-----------------------------|
|-13h14p13-11-13-------------|-13h=14p13-11-13-------------|
|----------------14-13-11----|-----------------14-13-11----|
|----------------------------|-----------------------------|
|
|  W                           +W
|----------------------------|-----------------------------|
|----------------------------|-----------------------------|
|--8-------------------------|-(8)-------------------------|
|----------------------------|-----------------------------|
|--6-------------------------|-(6)-------------------------|
|----------------------------|-----------------------------|


  N.C.
    PM--|    PM--|    PM----|    PM--|
  E S S E  E S S E  E S S   E  E S S E  E  E E  E
|-------------------------|-----------------------|
|-------------------------|-----------------------|
|-------------------9-----|------------11--9-7----|
|-7-7-7-7-11-7-7-7----7-7-|-7-11-7-7-7---------11-|
|-------------------------|-----------------------|
|-------------------------|-----------------------|
|
|   PM--|    PM--|    PM----|    PM--|
| E S S E  E S S E  E S S   E  E S S E  E  E E  E
|-------------------------|-----------------------|
|-------------------------|-----------------------|
|-------------------------|-----------------------|
|------------------11-----|------------12-11-9----|
|-9-9-9-9-12-9-9-9----9-9-|-9-12-9-9-9---------12-|
|-------------------------|-----------------------|


  PM----|    PM--|    PM----|    PM--|
  E S S E  E S S E  E S S   E  E S S E  E  E E  E
|-------------------------|-----------------------|
|-------------------------|-----------------------|
|-------------------9-----|------------11--9-7----|
|-7-7-7-7-11-7-7-7----7-7-|-7-11-7-7-7---------11-|
|-------------------------|-----------------------|
|-------------------------|-----------------------|
|
| PM----|    PM--|    PM----|    PM--|
| E S S E  E S S E  E S S   E  E S S E  E  E E  E
|-------------------------|-----------------------|
|-------------------------|-----------------------|
|-------------------------|-----------------------|
|------------------11-----|------------12-11-9----|
|-9-9-9-9-12-9-9-9----9-9-|-9-12-9-9-9---------12-|
|-------------------------|-----------------------|


  N.C.
      PM---|      PM---|      PM-----|      PM---|
   E  S  S  E  E  S  S  E  E  S  S    E  E  S  S  E  E  E  E  E
|----------------------------------|----------------------------|
|----------------------------------|----------------------------|
|-------------------------11-------|----------------13-11--9----|
|--9--9--9--9-13--9--9--9-----9--9-|--9-13--9--9--9----------13-|
|----------------------------------|----------------------------|
|----------------------------------|----------------------------|
|
|     PM---|      PM---|      PM-----|      PM---|
|  E  S  S  E  E  S  S  E  E  S  S    E  E  S  S  E  E  E  E  E
|----------------------------------|----------------------------|
|----------------------------------|----------------------------|
|----------------------------------|----------------------------|
|-------------------------13-------|----------------14-13-11----|
|-11-11-11-11-14-11-11-11----11-11-|-11-14-11-11-11----------14-|
|----------------------------------|----------------------------|


   PM------|      PM---|      PM-----|      PM---|
   E  S  S  E  E  S  S  E  E  S  S    E  E  S  S  E  E  E  E  E
|----------------------------------|----------------------------|
|----------------------------------|----------------------------|
|-------------------------11-------|----------------13-11--9----|
|--9--9--9--9-13--9--9--9-----9--9-|--9-13--9--9--9----------13-|
|----------------------------------|----------------------------|
|----------------------------------|----------------------------|
|
|  PM------|      PM---|      PM-----|      PM---|
|  E  S  S  E  E  S  S  E  E  S  S    E  E  S  S  E  E  E  E  E
|----------------------------------|----------------------------|
|----------------------------------|----------------------------|
|----------------------------------|----------------------------|
|-------------------------13-------|----------------14-13-11----|
|-11-11-11-11-14-11-11-11----11-11-|-11-14-11-11-11----------14-|
|----------------------------------|----------------------------|


  N.C.
    PM--|    PM--|    PM----|    PM--|
  E S S E  E S S E  E S S   E  E S S E  E  E E  E
|-------------------------|-----------------------|
|-------------------------|-----------------------|
|-------------------9-----|------------11--9-7----|
|-7-7-7-7-11-7-7-7----7-7-|-7-11-7-7-7---------11-|
|-------------------------|-----------------------|
|-------------------------|-----------------------|
|
|   PM--|    PM--|    PM----|    PM--|
| E S S E  E S S E  E S S   E  E S S E  E  E E  E
|-------------------------|-----------------------|
|-------------------------|-----------------------|
|-------------------------|-----------------------|
|------------------11-----|------------12-11-9----|
|-9-9-9-9-12-9-9-9----9-9-|-9-12-9-9-9---------12-|
|-------------------------|-----------------------|


  PM----|    PM--|    PM----|    PM--|
  E S S E  E S S E  E S S   E  E S S E  E  E E  E
|-------------------------|-----------------------|
|-------------------------|-----------------------|
|-------------------9-----|------------11--9-7----|
|-7-7-7-7-11-7-7-7----7-7-|-7-11-7-7-7---------11-|
|-------------------------|-----------------------|
|-------------------------|-----------------------|
|
| PM----|    PM--|    PM----|    PM--|
| E S S E  E S S E  E S S   E  E S S E  E  E E  E
|-------------------------|-----------------------|
|-------------------------|-----------------------|
|-------------------------|-----------------------|
|------------------11-----|------------12-11-9----|
|-9-9-9-9-12-9-9-9----9-9-|-9-12-9-9-9---------12-|
|-------------------------|-----------------------|


  N.C.
      PM---|      PM---|      PM-----|      PM---|
   E  S  S  E  E  S  S  E  E  S  S    E  E  S  S  E  E  E  E  E
|----------------------------------|----------------------------|
|----------------------------------|----------------------------|
|-------------------------11-------|----------------13-11--9----|
|--9--9--9--9-13--9--9--9-----9--9-|--9-13--9--9--9----------13-|
|----------------------------------|----------------------------|
|----------------------------------|----------------------------|
|
|     PM---|      PM---|      PM-----|      PM---|
|  E  S  S  E  E  S  S  E  E  S  S    E  E  S  S  E  E  E  E  E
|----------------------------------|----------------------------|
|----------------------------------|----------------------------|
|----------------------------------|----------------------------|
|-------------------------13-------|----------------14-13-11----|
|-11-11-11-11-14-11-11-11----11-11-|-11-14-11-11-11----------14-|
|----------------------------------|----------------------------|


   PM------|      PM---|      PM-----|      PM---|
   E  S  S  E  E  S  S  E  E  S  S    E  E  S  S  E  E  E  E  E
|----------------------------------|-----------------------------||
|----------------------------------|----------------------------o||
|-------------------------11-------|----------------13-11--9-----||
|--9--9--9--9-13--9--9--9-----9--9-|--9-13--9--9--9----------13--||
|----------------------------------|----------------------------o||
|----------------------------------|-----------------------------||
|
|  PM------|      PM---|      PM-----|      PM---|
|  E  S  S  E  E  S  S  E  E  S  S    E  E  S  S  E  E  E  E  E
|----------------------------------|-----------------------------||
|----------------------------------|----------------------------o||
|----------------------------------|-----------------------------||
|-------------------------13-------|----------------14-13-11-----||
|-11-11-11-11-14-11-11-11----11-11-|-11-14-11-11-11----------14-o||
|----------------------------------|-----------------------------||


   Breakdown
    C#m                                Ebm
     PM------------------------------------------------------------------
     S S S S S S S S S S S S S S S S    S S S S S S S S S S S S S S S S
||-----------------------------------|----------------------------------|
||o----------------------------------|----------------------------------|
||-----------------------------------|----------------------------------|
||-----------------------------------|----------------------------------|
||o--9-9-9-9-9-9-9-9-9-9-9-9-9-9-9-9-|--7-7-7-7-7-7-7-7-7-7-7-7-7-7-7-7-|
||-----------------------------------|----------------------------------|
|
|    W                                  W
||-----------------------------------|----------------------------------|
||o----------------------------------|----------------------------------|
||---2-------------------------------|--4-------------------------------|
||---4-------------------------------|--6-------------------------------|
||o----------------------------------|----------------------------------|
||-----------------------------------|----------------------------------|
|
|   Gtr III
|    W                                  W
||-----------------------------------|----------------------------------|
||o-10-------------------------------|-12-------------------------------|
||-----------------------------------|----------------------------------|
||-----------------------------------|----------------------------------|
||o----------------------------------|----------------------------------|
||-----------------------------------|----------------------------------|


  E                                  Ebm
 -------------------------------------------------------------------|
   S S S S S S S S S S S S S S S S    S S S S S S S S S S S S S S S S
|----------------------------------|------------------------------------|
|----------------------------------|------------------------------------|
|----------------------------------|------------------------------------|
|----------------------------------|------------------------------------|
|--5-5-5-5-5-5-5-5-5-5-5-5-5-5-5-5-|--4-4-4-4-4-4-4-4-4-4-4-4-4-4-4-4---|
|----------------------------------|------------------------------------|
|
|  W                                  W
|----------------------------------|------------------------------------|
|----------------------------------|------------------------------------|
|--6-------------------------------|--4---------------------------------|
|--7-------------------------------|--6---------------------------------|
|----------------------------------|------------------------------------|
|----------------------------------|------------------------------------|
|
|  W                                  W
|----------------------------------|------------------------------------|
|-14-------------------------------|-12---------------------------------|
|----------------------------------|------------------------------------|
|----------------------------------|------------------------------------|
|----------------------------------|------------------------------------|
|----------------------------------|------------------------------------|


  1.
  C#m                                Ebm
   PM------------------------------------------------------------------
   S S S S S S S S S S S S S S S S    S S S S S S S S S S S S S S S S
|----------------------------------|----------------------------------|
|----------------------------------|----------------------------------|
|----------------------------------|----------------------------------|
|----------------------------------|----------------------------------|
|--9-9-9-9-9-9-9-9-9-9-9-9-9-9-9-9-|--7-7-7-7-7-7-7-7-7-7-7-7-7-7-7-7-|
|----------------------------------|----------------------------------|
|
|  W                                  W
|----------------------------------|----------------------------------|
|----------------------------------|----------------------------------|
|--2-------------------------------|--4-------------------------------|
|--4-------------------------------|--6-------------------------------|
|----------------------------------|----------------------------------|
|----------------------------------|----------------------------------|
|
|  W                                  W
|----------------------------------|----------------------------------|
|-10-------------------------------|-12-------------------------------|
|----------------------------------|----------------------------------|
|----------------------------------|----------------------------------|
|----------------------------------|----------------------------------|
|----------------------------------|----------------------------------|


  B5/F#                              G#5/Eb
 -------------------------------------------------------------------|
   S S S S S S S S S S S S S S S S    S S S S S S S S S S S S S S S S
|----------------------------------|--------------------------------------||
|----------------------------------|-------------------------------------o||
|----------------------------------|--------------------------------------||
|----------------------------------|--------------------------------------||
|--2-2-2-2-2-2-2-2-2-2-2-2-2-2-2-2-|--4-4-4-4-4-4-4-4-7-7-7-7-7-7-7-7----o||
|----------------------------------|--------------------------------------||
|
|  W                                  W
|----------------------------------|--------------------------------------||
|----------------------------------|-------------------------------------o||
|--9-------------------------------|--6-----------------------------------||
|--9-------------------------------|--6-----------------------------------||
|----------------------------------|-------------------------------------o||
|----------------------------------|--------------------------------------||
|
|  W                                  W
|----------------------------------|--------------------------------------||
|-17-------------------------------|-14----------------------------------o||
|----------------------------------|--------------------------------------||
|----------------------------------|--------------------------------------||
|----------------------------------|-------------------------------------o||
|----------------------------------|--------------------------------------||


  2.
  C#m                                Ebm
   PM------------------------------------------------------------------
   S S S S S S S S S S S S S S S S    S S S S S S S S S S S S S S S S
|----------------------------------|----------------------------------|
|----------------------------------|----------------------------------|
|----------------------------------|----------------------------------|
|----------------------------------|----------------------------------|
|--9-9-9-9-9-9-9-9-9-9-9-9-9-9-9-9-|--7-7-7-7-7-7-7-7-7-7-7-7-7-7-7-7-|
|----------------------------------|----------------------------------|
|
|  W                                  W
|----------------------------------|----------------------------------|
|----------------------------------|----------------------------------|
|--2-------------------------------|--4-------------------------------|
|--4-------------------------------|--6-------------------------------|
|----------------------------------|----------------------------------|
|----------------------------------|----------------------------------|
|
|  W                                  W
|----------------------------------|----------------------------------|
|-10-------------------------------|-12-------------------------------|
|----------------------------------|----------------------------------|
|----------------------------------|----------------------------------|
|----------------------------------|----------------------------------|
|----------------------------------|----------------------------------|


  B5/F#                              G#5/Eb
 -------------------------------------------------------------------|
   S S S S S S S S S S S S S S S S    S S S S S S S S S S S S S S S S
|----------------------------------|-------------------------------------|
|----------------------------------|-------------------------------------|
|----------------------------------|-------------------------------------|
|----------------------------------|-------------------------------------|
|--2-2-2-2-2-2-2-2-2-2-2-2-2-2-2-2-|--4-4-4-4-4-4-4-4-4-4-4-4-4-4-4-4----|
|----------------------------------|-------------------------------------|
|
|  W                                  W
|----------------------------------|-------------------------------------|
|----------------------------------|-------------------------------------|
|--9-------------------------------|--6----------------------------------|
|--9-------------------------------|--6----------------------------------|
|----------------------------------|-------------------------------------|
|----------------------------------|-------------------------------------|
|
|  W                                  W
|----------------------------------|-------------------------------------|
|-17-------------------------------|-14----------------------------------|
|----------------------------------|-------------------------------------|
|----------------------------------|-------------------------------------|
|----------------------------------|-------------------------------------|
|----------------------------------|-------------------------------------|


 Bridge
  N.C.
   PM---------------|         PM---------------|
   S  S  E  E  E  E  E  Q     S  S  E  E  E  E  E  Q
|--------------------------|--------------------------|
|--------------------------|--------------------------|
|--------------------------|--------------------------|
|--5--5--4-----------------|--5--5--4-----------------|
|-----------7--5--7--5--4--|-----------7--5--7--5--4--|
|--------------------------|--------------------------|
|
|  PM---------------|         PM---------------|
|  S  S  E  E  E  E  E  Q     S  S  E  E  E  E  E  Q
|--------------------------|--------------------------|
|--------------------------|--------------------------|
|-12-12-11-----------------|-12-12-11-----------------|
|----------14-12-14-12-11--|----------14-12-14-12-11--|
|--------------------------|--------------------------|
|--------------------------|--------------------------|


                                                       G
   PM-----------------------------------------------|
   S  S  E  E  E  S  S  E  E  E    S  S  E  E  E  E  E  Q
|-------------------------------|---------------------------|
|-------------------------------|---------------------------|
|-------------------------------|---------------------------|
|--5--5--4----------------------|-----------------------5---|
|-----------7--5--7--7--5--4----|--5--5--4------------------|
|-----------------------------7-|-----------7--5--7--5--3---|
|
|  PM-----------------------------------------------|
|  S  S  E  E  E  S  S  E  E  E    S  S  E  E  E  E  E  Q
|-------------------------------|---------------------------|
|-------------------------------|---------------------------|
|-12-12-11----------------------|---------------------------|
|----------14-12-14-14-12-11----|-12-12-11------------------|
|----------------------------14-|----------14-12-14-12-10---|
|-------------------------------|---------------------------|


  E5F#5                     E5F#G5F#5 E5F#5             C5B5  G5
      PM|     PM|       PM--------|       PM|     PM--------|
  E E E E E E E E   E E E E E E E E   E E E E E E E E   E E E H    +E
|-----------------|-----------------|-----------------|-----------------|
|-----------------|-----------------|-----------------|-----------------|
|-----------------|-----------------|-----------------|-----------------|
|-----------------|-----------------|-----------------|-5-4-------------|
|-2h4-----5p4-----|-4p2-----2-4-5-4-|-2h4-----5p4-----|-3-2-0-5----(5)--|
|-0h2-2-2-----2-2-|-----2-2-0-2-3-2-|-0h2-2-2-----2-2-|-------3----(3)--|
|
|                           PM----|                     PM--|
| E E H       Q     H       E E E E   E E H       Q     E E E H    +E
|-----------------|-----------------|-----------------|-----------------|
|-----------------|-----------------|-----------------|-----------------|
|-----------------|-----------------|-----------------|-----------------|
|-----------------|-----------------|-----------------|-5-4-------------|
|-2h4-------------|---------2-4-5-4-|-2h4-------------|-3-2-0-5----(5)--|
|-0h2-------------|---------0-2-3-2-|-0h2-------------|-------3----(3)--|


 Guitar Solo
  E5F#5
       PM|         PM|              PM----------|
  E  E E  E  E  E  E  E        E  E E E  E E  E   E
|---------------------------|---------------------------|
|---------------------------|---------------------------|
|---------------------------|---------------------------|
|---------------------------|---------------------------|
|-2h=4-------5p=4-----------|--4p=2---------------------|
|-0h=2-2--2--------2--2-----|-------2-2--0-2--3---2-----|
|
|      PM|         PM|              PM----------|
| E  E E  E  E  E  E  E        E  E E E  E E  E   E
|---------------------------|---------------------------|
|---------------------------|---------------------------|
|---------------------------|---------------------------|
|-9s11------12p11-----------|-11p=9---------------------|
|-7s=9-9--9--------9--9-----|-------9-9--7-9-10---9-----|
|---------------------------|---------------------------|
|
| Gtr IV
|    PM--|                        PM--|
| E  E E  E  E  E  E  E       +E  E E E  E E  E   E
|------------7--9-10-[9]b10-|-(9)----------7--9-[12]b13-|
|---------------------------|-----------10--------------|
|------7-11-----------------|-------6-9-----------------|
|----9----------------------|-----7---------------------|
|---------------------------|---------------------------|
|---------------------------|---------------------------|


  E5   F#5                          G5
          PM|       PM-----------|
    E   E E E  E  E E E    E   E  E  H     +E
|-----------------------|-----------------------|
|-----------------------|-----------------------|
|-----------------------|-----------------------|
|-----------------------|-----------------------|
|---2h==4------5p=4-----|--3---2--0--5-----(5)--|
|---0h==2-2-2-------2-2-|------------3-----(3)--|
|
|         PM|       PM-----------|   ~~~~~~~~~~
|   E   E E E  E  E E E    E   E  E  H     +E
|-----------------------|-----------------------|
|-----------------------|-----------------------|
|-----------------------|-----------------------|
|---9s=11-----12p11-----|-10---9----------------|
|---7s==9-9-9-------9-9-|--------12-10----(10)--|
|-----------------------|-----------------------|
|
|       PM--|
|  +E   E E E  E  Q.       H..              E
|-(12)------------------|-----------------------|
|--------------8-10s====|=17s===============5S==|
|-----------7-----------|-----------------------|
|---------9-------------|-----------------------|
|-------9---------------|-----------------------|
|-----------------------|-----------------------|


  E5    F#5
             PM-----|                PM-----|             PM--------------------|
  E      E   E       E   E       E   E       E     E   E  E  E  E  E     E      E
|-----------------------------------------------|---------------------------------|
|-----------------------------------------------|---------------------------------|
|-----------------------------------------------|---------------------------------|
|-----------------------------------------------|---------------------------------|
|-2h=====4---------------5p======4--------------|--4p==2--------------------------|
|-0h=====2---2-------2---------------2-------2--|---------2--2--0--2-----3------2-|
|
|            PM-----|                PM-----|             PM--------------------|
| E      E   E       E   E       E   E       E     E   E  E  E  E  E     E      E
|-----------------------------------------------|---------------------------------|
|-----------------------------------------------|---------------------------------|
|-----------------------------------------------|---------------------------------|
|-9s====11--------------12p=====11--------------|-11p==9--------------------------|
|-7s=====9---9-------9---------------9-------9--|---------9--9--7--9----10------9-|
|-----------------------------------------------|---------------------------------|
|
| E     +E  +E      +E  +E      +E  +E      +E    +E   E  E  E  E  E.       +E.
|-----------------------------------------------|---------------------------------|
|-7b7.5r(7)-(7)b7.5r(7)-(7)b7.5r(7)-(7)b7.5r(7)-|-(7)-------12-15-14b15r===(14)---|
|-----------------------------------------------|-----11-14-----------------------|
|-----------------------------------------------|---------------------------------|
|-----------------------------------------------|---------------------------------|
|-----------------------------------------------|---------------------------------|


  E5 F#5                                        G5
         PM|                PM-------------|
   E  E  E  E  E     E      E  E    E    E   E   H                 +E
|--------------------------------|-------------------------------------|
|--------------------------------|-------------------------------------|
|--------------------------------|-------------------------------------|
|--------------------------------|-------------------------------------|
|--2h=4--------5p====4-----------|--3----2---0---5-----------------(5)-|
|--0h=2--2--2---------------2--2-|---------------3-----------------(3)-|
|
|        PM|                PM-------------|     ~~~~~~~~~~~~~~~~~~~~~~
|  E  E  E  E  E     E      E  E    E    E   E   H                 +E
|--------------------------------|-------------------------------------|
|--------------------------------|-------------------------------------|
|--------------------------------|-------------------------------------|
|--9s11-------12p===11-----------|-10----9-----------------------------|
|--7s=9--9--9---------------9--9-|----------12--10----------------(10)-|
|--------------------------------|-------------------------------------|
|
|  E  E  E  E  E.       +E.    E    Q       +E.     E  Q      +E.
|--------------------------------|-------------------------------------|
|----14-12-14-14b15r===(14)---12-|-14b15r==(14)----12-14b15r=(14)------|
|-11-----------------------------|-------------------------------------|
|--------------------------------|-------------------------------------|
|--------------------------------|-------------------------------------|
|--------------------------------|-------------------------------------|


  E5    F#5
               PM------|                    PM------|
   E     E     E       E        E     E     E       E
|-----------------------------------------------------------|
|-----------------------------------------------------------|
|-----------------------------------------------------------|
|-----------------------------------------------------------|
|--2h====4----------------------5p====4---------------------|
|--0h====2-----2-------2--------------------2-------2-------|
|
|              PM------|                    PM------|
|  E     E     E       E        E     E     E       E
|-----------------------------------------------------------|
|-----------------------------------------------------------|
|-----------------------------------------------------------|
|--9s===11---------------------12p===11---------------------|
|--7s====9-----9-------9--------------------9-------9-------|
|-----------------------------------------------------------|
|
|              |------5------|              |------5------|
|  S  S  S  S  S  S  S    S  S  S  S  S  S  S  S  S    S  S
|-21-20-19-18------------------19-18-17-16------------------|
|-------------22-21-20---19-18-------------20-19-18---17-16-|
|-----------------------------------------------------------|
|-----------------------------------------------------------|
|-----------------------------------------------------------|
|-----------------------------------------------------------|


                                                            EFG5
               PM-----------------------------------|
   E     E     E       E        E     E     E       E
|----------------------------------------------------------------|
|----------------------------------------------------------------|
|----------------------------------------------------------------|
|----------------------------------------------------------------|
|--4p====2-------------------------------------------------------|
|--------------2-------2--------0-----2-----3-------2------------|
|
|              PM-----------------------------------|
|  E     E     E       E        E     E     E       E
|----------------------------------------------------------------|
|----------------------------------------------------------------|
|----------------------------------------------------------------|
|-11p====9-------------------------------------------------------|
|--------------9-------9--------7-----9----10-------9------------|
|----------------------------------------------------------------|
|
|              |------5------|              |------5------|
|  S  S  S  S  S  S  S    S  S  S  S  S  S  S  S  S    S  S
|-18-17-16-15----------------------------------------------------|
|-------------19-18-17---16-15-20-19-18-17-----------------------|
|------------------------------------------20-19-18---17-16------|
|----------------------------------------------------------------|
|----------------------------------------------------------------|
|----------------------------------------------------------------|


  E5    F#5
               PM---|                  PM----------
   E     E     E     E     E     E     E     E
|-------------------------------------------------|
|-------------------------------------------------|
|-------------------------------------------------|
|-------------------------------------------------|
|--2h====4-----------------5p====4----------------|
|--0h====2-----2-----2-----------------2-----2----|
|
|              PM---|                  PM----------
|  E     E     E     E     E     E     E     E
|-------------------------------------------------|
|-------------------------------------------------|
|-------------------------------------------------|
|--9s===11----------------12p===11----------------|
|--7s====9-----9-----9-----------------9-----9----|
|-------------------------------------------------|
|
|  S  S  S  S  S  S  S  S  S  S  S  S  S  S  S  S
|-------15-19-------14-18-------13-17----------16-|
|----15----------14----------13-------------12----|
|-16----------15----------14-------------12-------|
|-------------------------------------13----------|
|-------------------------------------------------|
|-------------------------------------------------|


                    G5
 -------------|
   E     E     E     H                +E
|------------------------------------------------|
|------------------------------------------------|
|------------------------------------------------|
|------------------------------------------------|
|--3-----2-----0-----5----------------(5)--------|
|--------------------3----------------(3)--------|
|
|-------------|      ~~~~~~~~~~~~~~~~~~~~~
|  E     E     E     H                +E
|------------------------------------------------|
|------------------------------------------------|
|------------------------------------------------|
|-10-----9---------------------------------------|
|-------------12----10---------------(10)--------|
|------------------------------------------------|
|
|                                          ~~~~~
|  S  S  S  S  S  S  E.    +E   E  E       S
|-------14-------15-19b21r(19)-21-19------18b19--|
|----14-------15---------------------------------|
|-15-------16------------------------------------|
|------------------------------------------------|
|------------------------------------------------|
|------------------------------------------------|


   Verse
              F#5                            A5
      PM---|                        PM---|
      E  E q   H       +W           E  E  q   H       +W
||------------------|-------------|----------------|---------|
||o-----------------|-------------|----------------|---------|
||------------------|-------------|----------------|---------|
||------------------|-------------|----------------|---------|
||o------------4----|--(4)--------|-----------7----|--(7)----|
||----0--2-2---2----|--(2)--------|-2--5--5---5----|--(5)----|
|
|     PM---|                        PM---|
|     E  E q   H       +W           E  E  q   H       +W
||------------------|-------------|----------------|---------|
||o-----------------|-------------|----------------|---------|
||------------------|-------------|----------------|---------|
||------------11----|-(11)--------|----------14----|-(14)----|
||o---7--9-9---9----|--(9)--------|-9-12-12--12----|-(12)----|
||------------------|-------------|----------------|---------|
|
|                       >
|     ~~~~~~~~~~~~~~~~~~~~~
|    +W                +W           W                  W
||--(18)------------|-(18)--------|----------------|---------|
||o-----------------|-------------|----------------|---------|
||------------------|-------------|----------------|---------|
||------------------|-------------|----------------|---------|
||o-----------------|-------------|----------------|---------|
||------------------|-------------|----------------|---------|


            B5            C5
   PM---|
   E  E  q   H       +Q    H     +E   E
|-----------------|---------------------|
|-----------------|---------------------|
|-----------------|---------------------|
|-----------------|---------------------|
|------------9----|--(9)--10----(10)-10-|
|--5--7--7---7----|--(7)---8-----(8)--8-|
|
|  PM---|
|  E  E  q   H       +Q    H     +E   E
|-----------------|---------------------|
|-----------------|---------------------|
|-----------------|---------------------|
|-----------16----|-(16)--17----(17)-17-|
|-12-14-14--14----|-(14)--15----(15)-15-|
|-----------------|---------------------|


      B5           N.C.
                    PM---------------|
   Q   E E  H       S  S  E  E  E  E  E  Q
|----------------|---------------------------||
|----------------|--------------------------o||
|----------------|---------------------------||
|----------------|--5--5--4------------------||
|-10s==9----9----|-----------7--5--7--5--4--o||
|--8s==7----7----|---------------------------||
|
|                   PM---------------|
|  Q   E E  H       S  S  E  E  E  E  E  Q
|----------------|---------------------------||
|----------------|--------------------------o||
|----------------|-12-12-11------------------||
|-17s=16---16----|----------14-12-14-12-11---||
|-15s=14---14----|--------------------------o||
|----------------|---------------------------||


   Chorus
    E5F#5
         PM|       PM|        PM---------|
    E  E E E  E  E E E    E E E E E E  E E
||---------------------|-------------------|
||o--------------------|-------------------|
||---------------------|-------------------|
||---------------------|-------------------|
||o-2h=4------5p=4-----|--4p2--------------|
||--0h=2-2-2-------2-2-|------2-2-0-2--3-2-|
|
|        PM|       PM|        PM---------|
|   E  E E E  E  E E E    E E E E E E  E E
||---------------------|-------------------|
||o--------------------|-------------------|
||---------------------|-------------------|
||--9s11-----12p11-----|-11p9--------------|
||o-7s=9-9-9-------9-9-|------9-9-7-9-10-9-|
||---------------------|-------------------|


  E5F#5                        G5
       PM|       PM---------|
  E  E E E  E  E E E    E E  E  H     +E
|--------------------|---------------------||
|--------------------|--------------------o||
|--------------------|---------------------||
|--------------------|---------------------||
|-2h=4------5p=4-----|--3-2--0--5-----(5)-o||
|-0h=2-2-2-------2-2-|----------3-----(3)--||
|
|      PM|       PM---------|   ~~~~~~~~~~
| E  E E E  E  E E E    E E  E  H     +E
|--------------------|---------------------||
|--------------------|--------------------o||
|--------------------|---------------------||
|-9s11-----12p11-----|-10-9----------------||
|-7s=9-9-9-------9-9-|------12-10----(10)-o||
|--------------------|---------------------||


 Outro
  N.C.
   PM---------------|         PM---------------|
   S  S  E  E  E  E  E  Q     S  S  E  E  E  E  E  Q
|--------------------------|--------------------------|
|--------------------------|--------------------------|
|--------------------------|--------------------------|
|--5--5--4-----------------|--5--5--4-----------------|
|-----------7--5--7--5--4--|-----------7--5--7--5--4--|
|--------------------------|--------------------------|
|
|  PM---------------|         PM---------------|
|  S  S  E  E  E  E  E  Q     S  S  E  E  E  E  E  Q
|--------------------------|--------------------------|
|--------------------------|--------------------------|
|-12-12-11-----------------|-12-12-11-----------------|
|----------14-12-14-12-11--|----------14-12-14-12-11--|
|--------------------------|--------------------------|
|--------------------------|--------------------------|


                                                       G
   PM-----------------------------------------------|
   S  S  E  E  E  S  S  E  E  E    S  S  E  E  E  E  E  Q
|-------------------------------|---------------------------|
|-------------------------------|---------------------------|
|-------------------------------|---------------------------|
|--5--5--4----------------------|-----------------------5---|
|-----------7--5--7--7--5--4----|--5--5--4------------------|
|-----------------------------7-|-----------7--5--7--5--3---|
|
|  PM-----------------------------------------------|
|  S  S  E  E  E  S  S  E  E  E    S  S  E  E  E  E  E  Q
|-------------------------------|---------------------------|
|-------------------------------|---------------------------|
|-12-12-11----------------------|---------------------------|
|----------14-12-14-14-12-11----|-12-12-11------------------|
|----------------------------14-|----------14-12-14-12-10---|
|-------------------------------|---------------------------|


  E5F#5
  Gtrs I, II
  PM|
  E E H.        W          W          W
|-------------|----------|----------|------*|
|-------------|----------|----------|------*|
|-------------|----------|----------|------*|
|-------------|----------|----------|------*|
|-2-4---------|----------|----------|------*|
|-0-2---------|----------|----------|------*|




--------------------------------------------------------------------------------


Duration Legend
---------------
W - whole; H - half; Q - quarter; E - 8th; S - 16th; T - 32nd; X - 64th; a - acciaccatura
+ - note tied to previous; . - note dotted; .. - note double dotted
Uncapitalized letters represent notes that are staccato (1/2 duration)
Irregular groupings are notated above the duration line
Duration letters will always appear directly above the note/fret number it represents the
duration for.  Duration letters with no fret number below them represent rests.  Multi-
bar rests are notated in the form Wxn, where n is the number of bars to rest for.  Low
melody durations appear below the staff

Tablature Legend
----------------
 h   - hammer-on
 p   - pull-off
 b   - bend
 pb  - pre-bend
 r   - bend release (if no number after the r, then release immediately)
 /\  - slide into or out of (from/to "nowhere")
 s   - legato slide
 S   - shift slide
 - natural harmonic
[n]  - artificial harmonic
n(n) - tapped harmonic
 ~   - vibrato
 tr  - trill
 T   - tap
 TP  - trem. picking
 PM  - palm muting
\n/  - tremolo bar dip; n = amount to dip
 \n  - tremolo bar down
 n/  - tremolo bar up
/n\  - tremolo bar inverted dip
 =   - hold bend; also acts as connecting device for hammers/pulls
 <> - volume swell (louder/softer)
 x   - on rhythm slash represents muted slash
 o   - on rhythm slash represents single note slash

Misc Legend
-----------
 |  - bar
||  - double bar
||o - repeat start
o|| - repeat end
*|  - double bar (ending)
 :  - bar (freetime)
 $  - Segno
 &  - Coda
Tempo markers -  = BPM(8/16=s8/s16), where s8 = swing 8ths, s16 = swing 16ths

Related for Red Baron Blue Max tab