Guitaretab - guitar tabs
Song name
# A B C D E F G H I J K L M N O P Q R S T U V W X Y Z

Iced Earth - Divide And Devour tab

Iced Earth:  Divide And Devour

transcribed by: Russ Elton (webmaster@abysslord.com)

FIND EVERY ICED EARTH SONG AND
THE MOST UPDATED VERSION OF THIS SONG AT:

                        The Frozen Palace
                  http://abysslord.com/icedearth/

Date last modified:  08/09/08
  
PLEASE DO NOT COPY THIS TAB TO ANOTHER SITE 
WITHOUT AUTHORS' PERMISSION.  THANK YOU.

Tuning: Eb

Riff 1                                    x2
eb|----------------------------------------|
Bb|----------------------------------------|
Gb|----------------------------------------|
Db|-----------------4--------------------5-|
Ab|-----------------4--------------------5-|
Eb|-0-2222-00-22-00-2----0-2222-00-22-00-3-|
    * **** ** ** **      * **** ** ** **


Riff 2
eb|----------------------------------------|
Bb|----------------------------------------|
Gb|----------------------------------------|
Db|-----------------4--------------------5-|
Ab|-----------------4--------------------5-|
Eb|-0-2222-00-22-00-2----0-2222-00-22-00-3-|
    * **** ** ** **        **** ** ** **
                                          x2
eb|----------------------------------------|
Bb|----------------------------------------|
Gb|----------------------------------------|
Db|-----------------4--------------------5-|
Ab|-----------------4--------------------5-|
Eb|-0-2222-00-22-00-2----0-2222-00-22-00-3-|
      **** ** ** **        **** ** ** **
eb|-------------------------------------------|
Bb|-------------------------------------------|
Gb|-------------------------------------------|
Db|-----------------4--------------------5----|
Ab|-----------------4--------------------5----|
Eb|-0-2222-00-22-00-2----0-2222-00-22-00-3-00-|
      **** ** ** **        **** ** ** **   **

Riff 3
eb|------------------3--------|
Bb|------------------3--------|
Gb|---------------------------|
Db|---------------------------|
Ab|-7--------7--5---(5)--5/9\-|
Eb|-5--------5--3---(3)--3/7\-|

eb|-------------------------------------------|
Bb|-------------------------------------------|
Gb|-------------------------------------------|
Db|-----------------4--------------------5----|
Ab|-----------------4--------------------5----|
Eb|-0-2222-00-22-00-2----0-2222-00-22-00-3-00-|
      **** ** ** **        **** ** ** **   **
eb|------------------3--------|
Bb|------------------3--------|
Gb|---------------------------|
Db|---------------------------|
Ab|-7--------7--5---(5)--5/9\-|
Eb|-5--------5--3---(3)--3/7\-|


Play Riff 1
Play Riff 2
Play Riff 3


Riff 4
eb|--------------------------|
Bb|--------------------------|
Gb|--------------------------|
Db|--------------------------|
Ab|-4----4-0-4-7--------7----|
Eb|-2----2-0-2-5--------5-00-|
         * * *            **
eb|-----------------------------|
Bb|-----------------------------|
Gb|-9--------9------------------|
Db|-9--------9----5-------------|
Ab|-7--------7----3----(3)p0-5--|
Eb|-0--------0-00------------3--|
               **
Final time:
eb|------------------------------------|
Bb|------------------------------------|
Gb|-9--------9-------------------------|
Db|-9--------9----5--------------------|
Ab|-7--------7----3----(3)p0-5--(5)/9\-|
Eb|-0--------0-00------------3--(3)/7\-|
               **

Play Riff 1


Riff 5
eb|-----------2-------------------|
Bb|-----------2-------------------|
Gb|-------------------------------|
Db|-4--------(4)------------------|
Ab|-4--------(4)--------17\-/17\--|
Eb|-2--------(2)--------15\-/15\--|

[ Tab from: http://www.guitaretab.com/i/iced-earth/115117.html ]
Riff 6
eb|---------------------------------------|
Bb|---------------------------------------|
Gb|---------------------------------------|
Db|---------------------------------------|
Ab|-------------------4444-2222-----------|
Eb|-0-222222-0-222222-----------5555-4444-|
      ******   ****** **** **** **** ****
eb|---------------------------------------|
Bb|---------------------------------------|
Gb|---------------------------------------|
Db|-------------------4444-2222-----------|
Ab|-----------------------------5555-4444-|
Eb|-0-222222-0-222222---------------------|
      ******   ****** **** **** **** ****

Riff 6a
Guitar 1
eb|---------------------------------------|
Bb|---------------------------------------|
Gb|---------------------------------------|
Db|---------------------------------------|
Ab|-------------------4444-2222-----------|
Eb|-0-222222-0-222222-----------5555-4444-|
      ******   ****** **** **** **** ****
eb|---------------------------------------|
Bb|---------------------------------------|
Gb|---------------------------------------|
Db|-------------------4444-2222-----------|
Ab|-----------------------------5555-4444-|
Eb|-0-222222-0-222222---------------------|
      ******   ****** **** **** **** ****

Guitar 2
eb|---------------------------------------|
Bb|---------------------------------------|
Gb|---------------------------------------|
Db|---------------------------------------|
Ab|-------------------4444-2222-----------|
Eb|-0-222222-0-222222-----------5555-4444-|
      ******   ****** **** **** **** ****
eb|---------------------------------------|
Bb|---------------------------------------|
Gb|---------------------------------------|
Db|-------------------4444-2222-----------|
Ab|-----------------------------5555-4444-|
Eb|-0-222222-0-222222---------------------|
      ******   ****** **** **** **** ****


Play Riff 1

Riff 2a
eb|------------------------------------|
Bb|------------------------------------|
Gb|------------------------------------|
Db|---------------4------------------5-|
Ab|---------------4------------------5-|
Eb|-0-2222-00-2-0-2----0-2222-00-2-0-3-|
    * **** ** * *        **** ** * *
                                      x2
eb|------------------------------------|
Bb|------------------------------------|
Gb|------------------------------------|
Db|---------------4------------------5-|
Ab|---------------4------------------5-|
Eb|-0-2222-00-2-0-2----0-2222-00-2-0-3-|
      **** ** * *        **** ** * *
eb|---------------------------------------|
Bb|---------------------------------------|
Gb|---------------------------------------|
Db|---------------4------------------5----|
Ab|---------------4------------------5----|
Eb|-0-2222-00-2-0-2----0-2222-00-2-0-3-00-|
      **** ** * *        **** ** * *   **


Play Riff 3
Play Riff 4


Riff 4a
eb|---------------------------------|
Bb|---------------------------------|
Gb|---------------------------------|
Db|---------------------------------|
Ab|---------4---------------7-------|
Eb|-0-222-2-2-2-2-2-5-555-5-5-5-5-5-|
    * *** *   * * * * *** *   * * *
eb|-----------------------------|
Bb|-----------------------------|
Gb|-----------------------------|
Db|-----------------5-----------|
Ab|---------2-------3--3-3-5--5-|
Eb|-0-000-0-0-0-0-0--------3--3-|
    * *** *   * * *    * *

Final time:
eb|-------------------------------|
Bb|-------------------------------|
Gb|-------------------------------|
Db|-----------------5-------------|
Ab|---------2-------3--3-3-5--/9\-|
Eb|-0-000-0-0-0-0-0--------3--/7\-|
    * *** *   * * *    * *

Ending:
eb|-----------------|
Bb|-----------------|
Gb|-----------------|
Db|---------------4-|
Ab|---------------4-|
Eb|-0-2222-00-2-0-2-|
    * **** ** * *


Notation:

10^        = bend a quarter step.
10b11      = bend a half step.
10b12      = bend a full step.
10b12r10   = bend and release.
[10]12     = pre-bend.
[10]12r10  = pre-bend and release.
{14}       = pick the 14th fret while holding the most 
             previous bend.
<17>       = touch the string above the 17th fret while 
             previous note(s) is(are) still ringing.

10b13*     = tremolo bar bend, from the 10th fret to the 13th fret.
7d4*       = tremolo bar dive, from the 7th fret to the 4th fret. 
12~*       = tremolo bar vibrato.

x   =  mute with fret-hand
*   =  palm mute
X\\ =  pick slide
h   =  hammer-on
p   =  pull-off
~   =  vibrato
t   =  finger tap
/   =  slide up
\   =  slide down
h.  =  natural harmonics
a   =  artificial harmonics
(9) =  ghost note
tm  =  trem picking
tr  =  trill
Related for Divide And Devour tab
×
Divide And Devour